Song name
# A B C D E F G H I J K L M N O P Q R S T U V W X Y Z

The Maccabees - Child tab

(/) Slide Up  (\) Slide Down  (h) Hammer On  (p) Pull Off  (b) Bend (r) Release (v) Vibrato

Intro to "Child" By Maccabees

Guitar 1:
E|---------------------------------------------------------------------------|
B|--14------12------10------9-----7-----14------12------10------9-----12/14--|
G|------14------13------11-----9-----9------14------13------11-----9---------|
D|---------------------------------------------------------------------------|
A|---------------------------------------------------------------------------|
E|---------------------------------------------------------------------------|

Guitar 2:
E|--------------------------------------------------------------------|
B|--------------------------------------------------------------------|
G|--------------------------------------------------------------------|
D|--11------9------7-----6-----------11------9------7-----6-----------|
A|------12-----11-----9-----7--9--7------12-----11-----9-----7--9/11--|
E|--------------------------------------------------------------------|

Then at 0:36:

Guitar 1:
E|---------------------------|
B|---------------------------|
G|---------------------------|
D|--12--11--9--11--9---------|
A|--------------------12--9--|
E|---------------------------|

Guitar 2:
E|---------------------------------|
B|---------------------------------|
G|---------------------------------|
D|---------------------------9/11--|
A|---------------------------------|
E|---------------------------------|
Tap to rate this tab
# A B C D E F G H I J K L M N O P Q R S T U V W X Y Z