Song name
# A B C D E F G H I J K L M N O P Q R S T U V W X Y Z

The Magic Numbers - Crazy In Love tab

Crazy in Love - Barry Canning

Standard Tuning


Intro: E, C#m, F#m, A, B. (x2)

Guitar 2: (He plays this during the intro and the chorus aswell)

E-|------------------------------------------------------------------|
B-|------------------------------------------------------------------|
G-|------------------------------------------------------------------|
D-|-------------------2p1--------------------------------------------|
A-|---------2---3h4------4p2-------0---2-----------------------------|
E-|-0---2h4----------------------------------------------------------|


Verse 1:

E                  B          F#m      A            B            E
She worked hard to have it all, almost satisfied in what she got;

                   B          F#m        A             B               C#m
But lately she can feel it fall, all the things in her heart he forgot;

                F#          F#m                 B
Been holding on way too long, to a dream that's always been wrong;


Chorus:

E                   C#m                 G#m  A  B
She's gone crazy oh she's gone crazy in love;

E                   C#m                 G#m  A  B
She's gone crazy oh she's gone crazy in love;

A
Not much left to speak of, she's gone crazy in love;


Break: (E, B, F#m, A, B.)


Verse 2:

He made her sacrafice, oh so long ago;
Felt he had paid a price, for giving her so much soul;
Going nowhere all along, didn't know how he could be strong;


(Chorus)


Break: (E, B, F#m, A, B.)


Bridge:

C#m     A      B
Ohhhhhhhhhhhh, Crazy; (x2)


Verse 3:

She's moved on to someone new, never felt anything like this;
A change was long overdue, is it always as good as the rest;
Caught up in a brand new song, don't know why she waited this long;


Chorus 2:

F#                  D#m                 Bbm  B  C#
She's gone crazy oh she's gone crazy in love;

F#                  D#m                 Bbm  B  C#
She's gone crazy oh she's gone crazy in love;

B
Not much left to speak of, she's gone crazy in love;

Guitar 2:

E-|------------------------------------------------------------------|
B-|------------------------------------------------------------------|
G-|------------------------------------------------------------------|
D-|------------0h1---4p3p1-------------------------------------------|
A-|------1h4--------------4-------2---4------------------------------|
E-|-2---4------------------------------------------------------------|


Outro: (Chorus 2 chords) x2

Guitar 2:

E-|------------------------------------------------------------------|
B-|-7--7-6------7--7-6-----------------------------------------------|
G-|--------8p6---------8p6-6-------4---6-----------------------------|
D-|-----------------------8------------------------------------------| x2
A-|------------------------------------------------------------------|
E-|------------------------------------------------------------------|


E: 022100
A: 003330
B: 224442
C#m: 446654
C#: 446664
F#m: 244222
F#: 244322
G#m: 466444
D#m: 668876
Bbm: 688666

www.barrycanning.com


ivanyadam@hotmail.com
Tap to rate this tab
 
# A B C D E F G H I J K L M N O P Q R S T U V W X Y Z