Song name
# A B C D E F G H I J K L M N O P Q R S T U V W X Y Z

The Meg And Dia Band - Monster Acoustic chords

Highlighted       Show chord diagrams
F#m - 244222
Amaj - 577655
Esus2(maj7) - x2444xx
Dsus2 - xxx23x
A - xx222x
C#m - x46654
E - x221xx
Dadd9 - x5777x
Emaj - x7999x


Intro : F#m, Dsus2 (repeat)

Verse : F#m, Dsus2 (repeat)

Pre-Chorus : F#m, Amaj, Dsus-A-Esus2(maj7) (repeat)

                F#m7/E                  Dmaj9                   Amaj
Chorus 1:E-------------------------------------------------------------------|
         B---10-----10------10-----10-------10------10-------6-----6-----6---|
         G---11-----11------11-----11-------11------11-------7-----7-----7---|
         D------11-----11------------11--------11------11------7-----7-----7-|
         A-9------9------9---------------------------------------------------|
         E----------------------10-------10------10--------5-----5-----5-----|
                C#m
         E----------------|
         B---5-----5---5--|
         G---6-----6---6--|
         D-----6-----6-6--|
         A-4-----4-----4--|
         E----------------|

(Go Back to Intro)

Chorus 2:F#m, Dsus2, A, C#m
         F#m, Dsus2, A, E

B---------|ridge : F#m-E, F#m-Amaj, Dadd9-C#m, Dadd9-Emaj
----------|         F#m-E, F#m-Amaj, Dadd9-Emaj, Dadd9-Emaj

Chorus 1:E------------------------------------------------|
         B---10-----10------10-----10-------10------10----|
         G------11-----11------11-----11-------11------11-|
         D------------------------------------------------|
         A-9------9------9--------------------------------|
         E----------------------10-------10------10-------|

         Amaj, C#m, F#m, Dadd9, Amaj, Emaj, F#m


For the strumming pattern, listen to the song or look at where I found the chords :

http://www.youtube.com/watch#v=rRV-_hHqAX4&feature=related


This is my first tab. Hope you like it. ;)
Tap to rate this tab
 
# A B C D E F G H I J K L M N O P Q R S T U V W X Y Z