Song name
# A B C D E F G H I J K L M N O P Q R S T U V W X Y Z

The Methadones - Solitude tab

-------------------------------------------------------------------------------
			     Solitude - The Methadones
-------------------------------------------------------------------------------
Tabbed by: Rawker1

Listen to track for the rythym. Easy Song.

Email:  www.myspace.com/themethadones 

Tuning: Standard


VERSE

e|---------------------------------------------------------------------------|
B|---------------------------------------------------------------------------|
G|-------6-----2-------------------------------------------------------------|
D|-------6-----2-----4-----6-------------------------------------------------|
A|-------4-----0-----4-----6-------------------------------------------------|
E|-------------------2-----4-------------------------------------------------|

CHORUS

e|---------------------------------------------------------------------------|
B|---------------------------------------------------------------------------|
G|-------6------------------2------------------------------------------------|
D|-------6------2-----4-----2------------------------------------------------|
A|-------4------2-----4-----0------------------------------------------------|
E|--------------0-----2------------------------------------------------------|



| /  slide up
| \  slide down
| h  hammer-on
| p  pull-off
| ~  vibrato
| +  harmonic
| x  Mute note
===============================================================================
Tap to rate this tab
# A B C D E F G H I J K L M N O P Q R S T U V W X Y Z