Song name
# A B C D E F G H I J K L M N O P Q R S T U V W X Y Z

The Music - Human tab

there are 2 guitars in this, both standard tuning
Guitar 1 is Adam Nutter [lead guitar]
guitar 2 is Rob Harvey [Rythm and vocals]

guitar 1 with delay and clean tone
repeatedly

e ------|
b ------|
g ------|
d ------|
a ------|
e -7----|

guitar 2 clean tone
every 2 beats
e -------7----|
b --------7---|
g ---------7--|
d -----9----9-|
a -----9------|
e -----7------|

guitar 1 in verses, with delal and clean tone

e -19-19-17------------------------------------------------------|
b-----------19-17----17------------------------------------------|
g-----------------19----19-17----17------------------------------|
d-----------------------------19----19-17----17------------------|
a-----------------------------------------19---19-17--15---------|
e----------------------------------------------------------------|

bridge:
first part

guitar 1: ?? definatly with delay and still clean tone, near the 7th and 9th frets. 
figured it out yet

guitar 2 with WAH-WAH
repeated throughout all the verse

e-------------------------------------------------------------------|
b---X-X-X--15-X-15-15-15-X-15-15-15-X-X-14-X-14-14-14-X-15-14-------|
g---X-X-X--16-X-16-16-16-X-16-16-16-X-X-14-X-14-14-14-X-14-14-------|
d---X-X-X--16-X-16-16-16-X-16-16-16-X-X-14-X-14-14-14-X-14-14-------|
a-------------------------------------------------------------------|
e-------------------------------------------------------------------|

after a while the other guitarist, guitar 1, starts doing what he does in the verses.

after the bridge

guitar 1 throughout this vers does:

e----------------------|
b--17---15---14-15-14--|
g--14---14---14-14-14--|
d--14---14---14-14-14--|
a----------------------|
e----------------------|

guitar 2 does nothing

then another bridge:

guitar one does:

with wahwah

e---------------------------------|
b--17---17--15--15--14-14-14-15---|
g--14---14--14--14--14-14-14-14---|
d--14---14--14--14--14-14-14-14---|
a---------------------------------|
e---------------------------------|

guitar 2 does:
WITH WAHWAH
e--------------------------------------------------------|
b--X-X-X-14-X-14-14-X-14-X-14-14-X-14-X-14-14-X-15-14----|
g--X-X-X-14-X-14-14-X-14-X-14-14-X-14-X-14-14-X-14-14----|
d--X-X-X-14-X-14-14-X-14-X-14-14-X-14-X-14-14-X-14-14----|
a--------------------------------------------------------|
e--------------------------------------------------------|

heavy part [with the high pitch noise, guitars play along with it, but thwy are quiter]
guitar 1 with wahwah

e--------------------------------------------------------|
b--17-----------15------------14------------15-----------|
g--14[8 times]--14-[8 times]--14-[14 times]-14-[2 times]-|
d--14-----------14------------14------------14-----------|
a--------------------------------------------------------|
e--------------------------------------------------------|

guitar 2: clean tone:

e---------------------------------|
b-2-2-2-------------3-------------|
g-2-2-2-[14 times]--2-[2 times]---|
d-2-2-2-------------2-------------|
a-0-0-0-------------0-------------|
e---------------------------------|

during heavy bit still, the guitar 2 then goes
[with wah wah]
e--------------------------------------------------------|
b--X-X-X-14-X-14-14-X-14-X-14-14-X-14-X-14-14-X-15-14----|
g--X-X-X-14-X-14-14-X-14-X-14-14-X-14-X-14-14-X-14-14----|
d--X-X-X-14-X-14-14-X-14-X-14-14-X-14-X-14-14-X-14-14----|
a--------------------------------------------------------|
e--------------------------------------------------------|

outro [once high pitch noise has faded away]

guitar 1 does:

e----------------------|
b--17---15---14-15-14--|
g--14---14---14-14-14--|
d--14---14---14-14-14--|
a----------------------|
e----------------------|

guitar 2 does nothing

END
Tap to rate this tab
 
# A B C D E F G H I J K L M N O P Q R S T U V W X Y Z