Song name
# A B C D E F G H I J K L M N O P Q R S T U V W X Y Z

The Music - Welcome To The North tab

-------------------------------------------------------------------------------
			     WELCOME TO THE NORTH - The Music
-------------------------------------------------------------------------------
Tabbed by:marbleblue
Email:

Tuning:Standard

e|-------------------------------------------------------------------------------------|
B|----10--12p10--10----------------------------10--12p10--10---------------------------|
G|--11--11-----11--11------11--12p11--11-----11--11-----11--11------11-11--------------|
D|-9---------------------12--12-----12--12--9---------------------12----14-12----------|
A|---------------------10---------------------------------------12----12-------14-12---|
E|-------------------------------------------------------------------------------------|

                                                                 Let ring
e|---------------------------------------------------------------9---------------------|
B|----10--12p10--10----------------------------10--12p10--10-----10--------------------|
G|--11--11-----11--11------11--12p11--11-----11--11-----11--11---11--------------------|
D|-9---------------------12--12-----12--12--9--------------------11--------12----------|
A|---------------------10----------------------------------------9---------------------|
E|-------------------------------------------------------------------------------------|


| /  slide up
| \  slide down
| h  hammer-on
| p  pull-off
| ~  vibrato
| +  harmonic
| x  Mute note
===============================================================================


And thats it for the introduction. The main chords for the verse are Bm [x24432] and Cm
Think the chorus 'You know the numbers, show me the knuckles baby..' is Bm, F [133211]
Gb [244322]. The intro is played with some distortion, and the chords with quite a lot. 
currently too tired to figure out the solo. Will try later. Feedback appreciated
Tap to rate this tab
# A B C D E F G H I J K L M N O P Q R S T U V W X Y Z