Song name
# A B C D E F G H I J K L M N O P Q R S T U V W X Y Z

The Oh Hellos - Hello My Old Heart chords

Highlighted       Show chord diagrams
-------------------------------------------------------------------------------
                            Hello My Old Heart - The Oh Hello's
-------------------------------------------------------------------------------
Tabbed by: isenheimer
E-mail: isenheimer@hotmail.com
Tuning: Standard
Band Page: http://theohhellos.com/

Intro

Riff 1
   Am
e|--------------------------0--------------------------------0---------------| X2
B|-----------1------------------------------1--------------------------------|
G|------0h2------------0h2-------------0h2-------------0h2-------------------|
D|---------------------------------------------------------------------------|
A|---0-------------0----------------0---------------0------------------------|
E|---------------------------------------------------------------------------|


Riff 2
Ba Dum Ba's

     Am            C                F               F
e|--------------------------0------------------------------------------------| 
B|-----------1------------------------------1---------------1----------------|
G|------0h2------------0h2-------------0h2-------------0h2-------------------|
D|----------------------------------3---------------3------------------------|
A|---0-------------3---------------------------------------------------------|
E|---------------------------------------------------------------------------|
     Am             C               F               F
e|--------------------------0------------------------------------------------| X2
B|-----------1------------------------------1--------------------------------|
G|------0h2------------0h2-------------0h2-------------2h5p2--0-2------------|
D|----------------------------------3---------------3h5----------------------|
A|---0-------------3---------------------------------------------------------|
E|---------------------------------------------------------------------------|


Continue playing Riff 2 through the first verse


Am        C
hello my old heart 
F            F
how have you been 
Am             C            F       F
are you still there inside my chest? 
Am           C
I've been so worried 
F              F
you've been so still 
Am     C          F     F
barely beating at all 


G   Am       C                  F   
oh,    don't leave me here alone 
       C                  F            
don't tell me that we've grown 
                   G           Am
for having loved a little while 
G   Am         C               F
oh,    I don't want to be alone 
     C                F
I want to find a home 
               G                Dm
and I want to share it with you 


Am C F
hello my old heart 
it's been so long 
since I've given you away 
and every day I add another stone 
to the walls I built around you 
to keep you safe 


G   Am       C                  F   
oh,    don't leave me here alone 
       C                  F            
don't tell me that we've grown 
                   G           Am
for having loved a little while 
G   Am         C               F
oh,    I don't want to be alone 
     C                F
I want to find a home 
               G                Dm
and I want to share it with you 


Am C F
hello my old heart 
how have you been? 
how is it, being locked away? 
well don't you worry 
in there, you're safe 
and it's true, you'll never beat 
but you'll never break 


Two Guitars sound best here. One strums a C chords while the other plays these chords. 

Dm            C
nothing lasts forever 
     Dm                C
some things aren't meant to be 
      Dm                  Am
but you'll never find the answer 
           Am          G
until you set your old heart free 
          F            F
until you set your old heart free


Ending:  C F C F Am F C


Always open to suggestions or corrections.
Tap to rate this tab
 
# A B C D E F G H I J K L M N O P Q R S T U V W X Y Z