Song name
# A B C D E F G H I J K L M N O P Q R S T U V W X Y Z

The Operation Md - Someone Like You tab

-----------------------------------------------------------------------------
			     Someone like you - The Operation Md
-----------------------------------------------------------------------------
Tabbed by:Adam
Email: guitarfreak482@hotmail.com

Tuning: Standard
Intro:
e|--2-----------------------------------------------------------------------|
B|--2-----------------------------------------------------------------------|
G|--0--------4--------------------------------------------------------------|
D|--0--x4----4x4------2-----------------------------------------------------|
A|--0--------2--------2-----------------------------------------------------|
E|--3-----------------0-----------------------------------------------------|

Verse:
e|-2------3-------------0-------2----------------------------------------|
B|-2------2-x5----------1-------2----------------------------------------|
G|-0------3-------------0-x5----0-------4-x5-----------------------------|
D|-0-x5---0-----2-------2-------0-x5----4------2-------------------------|
A|-0------------2--x5---3-------0-------2------2--x10--------------------|
E|-3------------0---------------3--------------0-------------------------|

Chorus:
e|--2-------3--------------------------|--2----3-------------------------|
B|--2-------2--x5---2------------------|--2----2----2--------------------|
G|--0-------3-------2-x5-----4-x5------|--0----3----2----4---------------|
D|--0--x5---0-------2--------4---------|--0----0----2----4---------------|
A|--0---------------0--------2---------|--0---------0----2---------------|
E|--3----------------------------------|--3------------------------------|

Verse:
e|-2------3-------------0-------2-----------------------------------------|
B|-2------2-x5----------1-------2-----------------------------------------|
G|-0------3-------------0-x5----0-------4-x5------------------------------|
D|-0-x5---0-----2-------2-------0-x5----4------2--------------------------|
A|-0------------2--x5---3-------0-------2------2--x10---------------------|
E|-3------------0---------------3--------------0--------------------------|

Chorus:
e|--2-------3--------------------------|--2----3-------------------------|
B|--2-------2--x5----------------------|--2----2----2--------------------|
G|--0-------3-------2-x5---4---x5------|--0----3----2----4---------------|
D|--0--x5---0-------2------4-----------|--0----0----2----4---------------|
A|--0---------------0------2-----------|--0---------0----2---------------|
E|--3----------------------------------|--3------------------------------|


Bridge: " I-eahhhhh "                "i wish it was"(when that lyric ends)
e|-2-------3------------------------|-----------------------------------------|
B|-2-------2---x5-------------------|-----------------------------------------|
G|-0-------3---------4--------------|-4---------------------------------------|
D|-0--x5---0---------4-x5----2------|-4----2----------------------------------|
A|-0-----------------2-------2-x5---|-2----2----------------------------------|
E|-3-------------------------0------|------0----------------------------------|
  " its not me"
e|--2---3--------------|------------------------------------------------------|
B|--2---2--------------|------------------------------------------------------|
G|--0---3---4----------|------------------------------------------------------|
D|--0---0---4-----2----|----2-------------------------------------------------|
A|--0-------2-----2----|----2--x10--------------------------------------------|
E|--3-------------0----|----0-------------------------------------------------|

Chorus:                                   "doooooooooooooo"     "ooooohhh"
e|--2-------3--------------------------|--2--------------------|-------------|
B|--2-------2--x5---2------------------|--2--------------------|-------------|
G|--0-------3-------2-x5-----4-x5------|--0------4-------------|-------------|
D|--0--x5---0-------2--------4---------|--0-x5---4--x5--2------|---2---------|
A|--0---------------0--------2---------|--0------2------2--x5--|---2-x12-----|
E|--3----------------------------------|--3-------------0------|---0---------|
Tap to rate this tab
# A B C D E F G H I J K L M N O P Q R S T U V W X Y Z