Song name
# A B C D E F G H I J K L M N O P Q R S T U V W X Y Z

The Parlor Mob - The Beginning Acoustic tab

-------------------------------------------------------------------------------
			     The Beginning - The Parlor Mob(Acoustic)
-------------------------------------------------------------------------------
Tabbed by: Walsh
Email: chris@ogdenclothing.com


first one, but it works

Tuning: Regular

Intro

Bm-Bm-A-Bm-Bm-G-Fm-Bm

e|--------------------0----------------|
B|--------------3-----------3----------|
G|----------4------4----4-------4------|  x2
D|---------4---------------------------|
A|----2---2----------------------------|
E|-------------------------------------|

e|--------------------0----------------|
B|--------------3-----------3----------|
G|----------4------4----4-------4------|  x2
D|---------4---------------------------|
A|----0---0----------------------------|
E|-------------------------------------|

e|-----------3-------------------------|
B|------------3------------------------|
G|-------------0-----------------------| ?
D|------0------------------------------|
A|-----2-------------------------------|
E|-3--3--------------------------------|

e|----------2--------------------------|
B|-----------2-------------------------|
G|------------3------------------------| ?
D|------4------------------------------|
A|-----4-------------------------------|
E|-2--2--------------------------------|


Bm                                                                               A
I started the day by the tree where the sea was of nothing
Bm                                                                               A
I was closer to god in my dreams but still out of my head
Bm                                                                               A
When all of the leaves and the moments were in their way touching
G                                 Fm                                          Bm
A blanket of change and the listening for what will be said


Bm                                                                               A
When all that I knew was the wind and the faces before me
Bm                                                                               A
I spoke with the purpose and strength of a thousand young man
Bm                                                                               A
When the weight of the world and their wolves were out there to destroy me
G                                 Fm                                          Bm
I stood in the grass on the hill with my will to defend

Bm-Bm-A-Bm-Bm-G-Fm-Bm

Bm
This is the start of something
Bm                                    A
This is the end of who we were
                                              Bm
The beginning of what we will be
Bm
This is the call to something,
Bm                                         A
This is a chance at something pure,
                                           Bm
The only chance that we can see



G                   Fm                    Bm
When everything else disappears
G                   Fm                    Bm
We'll live out our live beyond years


Bm                                                               A
Where's the forgiveness we said would be written all over
Bm                                                               A
Where is the peace and the freedom we said would be ours
Bm                                                               A
Have we been lost in a dead winter whispering clover
G                                    Fm                                Bm
Can we get back to the truth in the bees and the flowers


Bm
This is the start of something
Bm                                    A
This is the end of who we were
                                              Bm
The beginning of what we will be
Bm
This is the call to something,
Bm                                         A
This is a chance at something pure,
                                           Bm
The only chance that we can see



G                   Fm                    Bm
When everything else disappears
G                   Fm                    Bm
We'll live out our live beyond years



(No idea how to do the end, one of the best parts)
enjoy
Tap to rate this tab
# A B C D E F G H I J K L M N O P Q R S T U V W X Y Z