Song name
# A B C D E F G H I J K L M N O P Q R S T U V W X Y Z

The Parlor Mob - Everything Youre Breathing For tab

-------------------------------------------------------------------------------
		EVERYTHING YOU'RE BREATHING FOR - The Parlor Mob
-------------------------------------------------------------------------------

http://www.roadrunnerrecords.com/artists/ParlorMob/

Tabbed by: affiray
Email: affiray1990@gmail.com

Tuning: EADGBe



Verse Riff (x6)
e|---------------------------------------------------------------------------|
B|-------12--------13p12-----12--------------------12p10---------------------|
G|------------------------------12-------------------------------------------|
D|----12--------12-----------------12-----------10---------------8h10p8------|
A|-10-----------------------------------------8---------------10--------h10--|
E|----------------------------------------------------------8----------------|


Build-Up
e|---------------------------------------------------------------------------|
B|---------------------------------------------------------------------------|
G|-------7-----8p7----7---------------9------10p9---9------------------------|
D|-----------------------8-----------------------------10--------------------|
A|-----8-----8-------------8-------10-----10--------------10-----------------|
E|---6---------------------------8-------------------------------------------|

e|--------------------------------------------8------------------------------|
B|-------8-----9p8----8---------------10-------------------------------------|
G|-----------------------8---------------------------------------------------|
D|-----8----8--------------8-------10-----10---------------------------------|
A|---6---------------------------8-------------------------------------------|
E|---------------------------------------------------------------------------|


Bridge
e|---------------------------------------------------------------------------|
B|------------------------------3--------------------------------------------|
G|--------------------5p4---5p4---4-----3------------------------------------|
D|-5-------5--------5-----5---------3h5---5p3----3h5------5-----5------------|
A|-5-------5----------------------------------5-------3h5---3h5-----3--------|
E|-3-------3------------------------------------------------------------5----|


e|---------------------------------------------------------------------------|
B|------------------------------3--------------------------------------------|
G|--------------------5p4---5p4---4-----3------------------------------------|
D|-5-------5--------5-----5---------3h5---5\3-1----------3-------------------|
A|-5-------5------------------------------------3-1--1h3------1--------------|
E|-3-------3------------------------------------------------------3----------|


Chorus Riff (x4)
e|---------------------------------------------------------------------------|
B|-------12--------13p12-----12--------------------12p10---------------------|
G|------------------------------12-------------------------------------------|
D|----12--------12-----------------12-----------10---------------8h10p8------|
A|-10-----------------------------------------8---------------10--------h10--|
E|----------------------------------------------------------8----------------|


At the end of the fourth time, lead guitar plays like a tiny fill, sort of...



Verse Riff (x4)
e|---------------------------------------------------------------------------|
B|-------12--------13p12-----12--------------------12p10---------------------|
G|------------------------------12-------------------------------------------|
D|----12--------12-----------------12-----------10---------------8h10p8------|
A|-10-----------------------------------------8---------------10--------h10--|
E|----------------------------------------------------------8----------------|


Second Build-Up
e|---------------------------------------------------------------------------|
B|---------------------------------------------------------------------------|
G|----------------------------------10-10b11r10----8-------------------------|
D|-8------8--------10------10-------------------10---10----------------------|
A|-8------8--------10------10------------------------------------------------|
E|-6------6--------8-------8-------------------------------------------------|

That fill probably isn't right, but it sounds kinda cool. You could also try

D|--10-8-10-11-10~~--|

Or anything else that sounds cool


e|---------------------------------------------------------------------------|
B|---------------------------------------------------------------------------|
G|--8------8--------------10----------10----------10\\\\\\-------------------|
D|--8------8--------------10----------10----------10\\\\\\-------------------|
A|--6------6--------------8-----------8-----------8\\\\\\\-------------------|
E|---------------------------------------------------------------------------|


Chorus...
e|---------------------------------------------------------------------------|
B|---------------------------------------------------------------------------|
G|----------------------------------5--5--5--5----5--------------------------|
D|-5------5-------------3---3-------5--5--5--5----5---------------5----------|
A|-5------5-------------3---3-------3--3--3--3----3---------------5----------|
E|-3------3-------------1---1-------------------------------------3----------|

e|---------------------------------------------------------------------------|
B|---------------------3-----------------------------------------------------|
G|-----------5p4---5p4---4-----3---------------------------------------------|
D|---------5-----5---------3h5---5p3----3h5------5-----5---------------------|
A|-----------------------------------5-------3h5---3h5-----3-----------------|
E|-------------------------------------------------------------5-------------|

e|---------------------------------------------------------------------------|
B|---------------------------------------------------------------------------|
G|------------------------------------5--5--5--5-----------------------------|
D|-5------5-----------3-----3---------5--5--5--5----5-----------5------5-----|
A|-5------5-----------3-----3---------3--3--3--3----5-----------5------5-----|
E|-3------3-----------1-----1-----------------------------------3------3-----|

e|---------------------------------------------------------------------------|
B|---------------3-----------------------------------------------------------|
G|-----5p4---5p4---4-----3---------------------------------------------------|
D|---5-----5---------3h5---5\3-1----------1------------------5---------------|
A|-------------------------------3-1--1h3------1-------------5---------------|
E|-------------------------------------------------3---------3---------------|


Then there's a crazy double-solo. I don't know how to play it.


Then, post-solo lead in to chorus (same as before, but without the fill):

e|---------------------------------------------------------------------------|
B|---------------------------------------------------------------------------|
G|-------------------------------------8-----8---------10------10------10\\--|
D|-8-----8----------10-----10----------8-----8---------10------10------10\\--|
A|-8-----8----------10-----10----------6-----6---------8-------8-------8\\\--|
E|-6-----6----------8------8-------------------------------------------------|


Chorus (x2):
e|---------------------------------------------------------------------------|
B|---------------------------------------------------------------------------|
G|----------------------------------5--5--5--5----5--------------------------|
D|-5------5-------------3---3-------5--5--5--5----5---------------5----------|
A|-5------5-------------3---3-------3--3--3--3----3---------------5----------|
E|-3------3-------------1---1-------------------------------------3----------|

e|---------------------------------------------------------------------------|
B|---------------------3-----------------------------------------------------|
G|-----------5p4---5p4---4-----3---------------------------------------------|
D|---------5-----5---------3h5---5p3----3h5------5-----5---------------------|
A|-----------------------------------5-------3h5---3h5-----3-----------------|
E|-------------------------------------------------------------5-------------|

e|---------------------------------------------------------------------------|
B|---------------------------------------------------------------------------|
G|------------------------------------5--5--5--5-----------------------------|
D|-5------5-----------3-----3---------5--5--5--5----5-----------5------5-----|
A|-5------5-----------3-----3---------3--3--3--3----5-----------5------5-----|
E|-3------3-----------1-----1-----------------------------------3------3-----|

e|---------------------------------------------------------------------------|
B|---------------3-----------------------------------------------------------|
G|-----5p4---5p4---4-----3---------------------------------------------------|
D|---5-----5---------3h5---5\3-1----------1----------------------------------|
A|-------------------------------3-1--1h3------1-----------------------------|
E|-------------------------------------------------3-------------------------|


And then the end:

The verse riff x3

e|---------------------------------------------------------------------------|
B|-------12--------13p12-----12--------------------12p10---------------------|
G|------------------------------12-------------------------------------------|
D|----12--------12-----------------12-----------10---------------8h10p8------|
A|-10-----------------------------------------8---------------10--------h10--|
E|----------------------------------------------------------8----------------|


And you end on this

e|------------------------|
B|----13--13p12----12-----|
G|--------------12--------|
D|------------------------|
A|-10---------------------|
E|------------------------|


| /  slide up
| \  slide down4
| h  hammer-on
| p  pull-off
| ~  vibrato
| +  harmonic
| x  Mute note
===============================================================================
Tap to rate this tab
# A B C D E F G H I J K L M N O P Q R S T U V W X Y Z