Song name
# A B C D E F G H I J K L M N O P Q R S T U V W X Y Z

The Parlor Mob - Cant Keep No Good Boy Down tab

The Parlor Mob
Can't Keep No Good Boy Down (Introduction)
Tabbed By: ShadowOnTheWall





Guitar 1
e|--------------------0------------------|
B|----3------3p0--------3-------3--------|
G|-4----4--------4--------4--------5p4p2-|
D|-5------5--------5--------4-5----------|
A|---------------------------------------|
E|---------------------------------------| x2


(0:13)
Guitar 1
e|---------------------------------------|
B|------------------------3--------------|
G|--------------------------4------------|
D|--------------------5-------5--3-3-5-5-|
A|---------------------------------------|
E|---------------------------------------|

Guitar 2
e|---------------------------------------|
B|--------15-13--------------------------|
G|-10/12--------14-----------------------|
D|---------------------------------------|
A|---------------------------------------|
E|---------------------------------------|

Guitar 3
e|---------------------------------------|
B|---------------------------------------|
G|------------------4--------------------|
D|------------------5--------------------|
A|------------------5--------------------|
E|---------------------------------------|



(0:16)
Guitar 1
e|---------------------------------------|
B|-------------------------8-8-8-6-8-----|
G|---------------------------------------|
D|---------------------------------------|
A|---------------------------------------|
E|---------------------------------------|

Guitar 2
e|-------12------------------------------|
B|----------15---------------------------|
G|-12/14-------12------------------------|
D|---------------------------------------|
A|---------------------------------------|
E|---------------------------------------|

Guitar 3
e|---------------------------------------|
B|---------------------------------------|
G|-----------------3--4-4----------------|
D|-----------------4--5-5----------------|
A|-----------------4--5-5----------------|
E|---------------------------------------|



(0:18)
Guitar 1
e|---------------------------------------|
B|------------------------3--------------|
G|--------------------------4------------|
D|--------------------5-------5--3-3-5-5-|
A|---------------------------------------|
E|---------------------------------------|

Guitar 2
e|---------------------------------------|
B|--------15-13--------------------------|
G|-10/12--------14-----------------------|
D|---------------------------------------|
A|---------------------------------------|
E|---------------------------------------|

Guitar 3
e|---------------------------------------|
B|---------------------------------------|
G|------------------4--------------------|
D|------------------5--------------------|
A|------------------5--------------------|
E|---------------------------------------|



(0:21)
Guitar 1
e|---------------------------------------|
B|----------------------------3-3---3h5p3|
G|---------------------------------------|
D|--------------------------------5------|
A|---------------------------------------|
E|---------------------------------------|

Guitar 2
e|-------12------------------------------|
B|----------15---------------------------|
G|-12/14-------12------------------------|
D|---------------------------------------|
A|---------------------------------------|
E|---------------------------------------|

Guitar 3
e|---------------------------------------|
B|---------------------------------------|
G|-----------------3--4-4----------------|
D|-----------------4--5-5----------------|
A|-----------------4--5-5----------------|
E|---------------------------------------|


Tap to rate this tab
 
# A B C D E F G H I J K L M N O P Q R S T U V W X Y Z