The Speaks - High tab

Intro/Verse:
     D           A/C#       Bm          G       A   
e|-2--2------|-0--2-----|-----2-----|--------|--------|
B|--3--3-3---|--2--2-2--|--3---3-3--|-3--3---|-2------|
G|---2--2-2--|---2--2-2-|---4---4-2-|--0--0--|--2-----|
D|-----------|----------|----4------|---0--0-|--------|
A|-----------|----------|-----------|--------|--------|
E|-----------|----------|-----------|--------|--------|

Chorus:
[Rhythm: Same chords (strumming)]
[Lead:]
                D                             A/C#
e|-----------12----10-10-9-10-9----|-------12----10-10-9-10-9-----|
B|-10--10-10----10--------------10-|-10-10----10--------------10--|
G|---------------------------------|------------------------------|
D|---------------------------------|------------------------------|
A|---------------------------------|------------------------------|
E|---------------------------------|------------------------------|

                Bm                       G
e|-7--7-7-10-9-----10-10-9-10-9-----|-7--7---9--9--9--10----------|
B|-------------10---------------10\-|-----------------------------|
G|----------------------------------|-----------------------------|
D|----------------------------------|-----------------------------|
A|----------------------------------|-----------------------------|
E|----------------------------------|-----------------------------|
[~~~~~~~~~~~~~~~~~~~~~~~~~~~2x~~~~~~~~~~~~~~~~~~~~~~~~~~~~~~~~~~~~~~]


[Repeat Stanza]
[Repeat Chorus]

Solo: (Same chords also)
e|-----------------------------------------------------------------|
B|-----5-5h7-5-----------------------------------------------------|
G|-7-7---------7-7/9-7-6-7-6-4--4h6-4--------------6-6h7p6---------|
D|------------------------------------7-5-4--4-5-7---------7-------|
A|-----------------------------------------------------------------|
E|-----------------------------------------------------------------|

e|---------------------------------------------------------------10-9----10-|
B|-----5-5h7-5---8/10-8-7-7h8-7----------7---8----------7-8---10------10----|
G|-7-7---------7----------------7----7h9-------7-7--7h9-----7---------------|
D|--------------------------------------------------------------------------|
A|--------------------------------------------------------------------------|
E|--------------------------------------------------------------------------|

(Repeat verse1)
(Repeat Chorus)


that's all!!
Tap to rate this tab
 
# A B C D E F G H I J K L M N O P Q R S T U V W X Y Z