Song name
# A B C D E F G H I J K L M N O P Q R S T U V W X Y Z

The Stooges - Dirt tab

Dirt-The Stooges

   Guitars-Ron Asheton

   From the Album: Funhouse


   Intro

e----------------------------------------------------------------------|
B----------------------------------------------------------------------|
G---------------------------------------------------------------/14----|
D----------------------------------------------------------------------|
A---12-12-12-12--12-12-12-12--12-12-12-12--12-12-12-12--12\------------|
E----------------------------------------------------------------------|


e----------------------------------------------------------------------|
B--------------------------------------------------11------11----------|
G-----5---5h7--5-----------7b~~~~---7h9p7----------13b~~~--13b~~~------|
D--7--0---0----0---------------------------5h7-------------------------|
A--0----------------12\--------------------------------------------12\-|
E----------------------------------------------------------------------|


e--------------------|
B--------------------|
G--7b~~~~---7h9p7----|
D--------------------|
A--------------------|
E--------------------|

   Chorus

e----------------------------------------------------------------------|
B-----------12-------12----------12----12-----------10-------10--------|
G--14---14-----14-------14----14----14-----12---12-----12-------12-----|
D--14---14--------14-------14--------------12---12--------12-------12--|
A--12---12---------------------------------10---10---------------------|
E----------------------------------------------------------------------|


e----------------------------------------------------------------------|
B-----10----10-----------8-------8----------8----8-----------8---------|
G--12----12-----10---10----10------10----10---10----10---10----10------|
D---------------10---10-------10------10------------10---10-------10---|
A----------------8----8------------------------------8----8------------|
E----------------------------------------------------------------------|


e-----------------------|
B--8----------8----8----|
G----10----10---10------|
D-------10--------------|
A-----------------------|
E-----------------------|


   Solo

e------------------------------------------------------------------------|
B--12----12----12----12--------------------------------------------------|
G--14b---14b---14b---14b--12----12-----12----------12--14br-12----12-----|
D----------------------------14----14-----14-12-14-------------14--------|
A------------------------------------------------------------------------|
E------------------------------------------------------------------------|
   3:24

e----------------------------------------------------------------------|
B-------------------------------------------------------8--10--10b-10b-|
G-----------12v----------7--9p7---7-9--9br-7---7---7--9----------------|
D--14-12-14-----14\---/9--------9------------9-------------------------|
A----------------------------------------------------------------------|
E----------------------------------------------------------------------|
   3:30

e---------------------------------------------------------------|
B--10b-10b-10--10br-8---8----------8-10-8-10-8-10--10brp8---8b--|
G---------------------9----9p7---7------------------------9-----|
D------------------------------9--------------------------------|
A---------------------------------------------------------------|
E---------------------------------------------------------------|
   3:37

e-------------------------------------------------------------------|
B-------------8---8--10-8--10b-10b-10b-10b-10b-10b-10b-10b-10b-10b--|
G--9p7---7--9---9---------------------------------------------------|
D------9------------------------------------------------------------|
A-------------------------------------------------------------------|
E-------------------------------------------------------------------|
   3:42

e-------------------------------------------------------------|
B--10b-10b-10b~~~~----10b-10----------------------------------|
G--------------------------------------------7---7---9-7---7--|
D--------------------------------4-6-4-6--/9---9---------9----|
A-----------------------------/4------------------------------|
E-------------------------------------------------------------|
   3:47

e------------------------------------------------------------------|
B---------------------------10-8-10--10b--10b-10b-10b-10b-10b-10b--|
G--7-9-7-9-9h11p9\7---7--9-----------------------------------------|
D-------------------9----------------------------------------------|
A------------------------------------------------------------------|
E------------------------------------------------------------------|
   3:54

e----------------------------------------------------------------------|
B-------------------------------------------------8br-10br-10br-10br---|
G-----------------7----9-7-9-7-9-7-9brbr--9br-9br----------------------|
D-----4-6-4-6--/9---9--------------------------------------------------|
A--/4------------------------------------------------------------------|
E----------------------------------------------------------------------|
   3:58

e----------------------------------------------------------------------|
B--8---8------------------8---8-------10b-10b-10br-8---8------10b-10b--|
G----9---9------7---7---9---9---9--7-----------------9---9--7----------|
D-----------7h9---9----------------------------------------------------|
A----------------------------------------------------------------------|
E----------------------------------------------------------------------|
   4:04
                             (With Heavy Wah Effect)
e----------------------------------------------------------------------|
B--8-----8---8---------------------------------------------------------|
G----9-----9-----9--7---7h9--------------------------------------------|
D----------------------------------------------------------------------|
A----------------------------14v-14v--14\\\\\\\\\\\\\\\---14v-14v-14v--|
E----------------------------------------------------------------------|
   4:12

e----------------------------------------------------------------------|
B----------------------------------------------------------------------|
G----------------------------------------------------------------------|
D----------------------------------------------------------------------|
A--14v-14v-14v--14\\\\\\\\\\\\\\\--14v-14v-14v-14v-14v-14v-14v-14v-14v-|
E----------------------------------------------------------------------|


e-----------------------12b------------|
B--------------------------------------|
G------------------------------9\------|
D------------------------------9\------|
A--14v-14v-14v-14v~\-----------7\------|
E--------------------------------------|
                                (At the end of the Solo go back to the
                                  chorus and keep playing that till
                                        the end of the song.)

Here is a quick guide to how I denote certain actions on the guitar

Slide up = /

Slide Down = \

Stacatto Pick Down = \\\\\\\\\

Bend = b

Pre Bend = pb

Slow Bend = sb

Release = r

Hammer On = h

Pull Off = p

Vibrato = v

Mute = x

Hold Vibrato = v~~~
Tap to rate this tab
# A B C D E F G H I J K L M N O P Q R S T U V W X Y Z