Song name
# A B C D E F G H I J K L M N O P Q R S T U V W X Y Z

The Stooges - Down In The Street tab

1.Down on the Street-The Stooges

  Guitar-Ron Asheton

  From the Album: Funhouse

  Verse

e---------------------------------------------------------------------------|
B---------------------------------------------------------------------------|
G---------------------------------------------------------------------------|
D-------------------------2-------------------------------------------------|
A--12\--2--2--2--2--2--2--0--2---2--2--2--2--2---0---2---2--2--2--2--2------|
E--10\--0--0--0--0--0--0-----0---0--0--0--0--0---0---0---0--0--0--0--0------|


e---------------------------------------------------------------------------|
B---------------------------------------------------------------------------|
G------------------2b--2p0--------------------------------------------------|
D--2------------------------------------------------------------------------|
A--0--2---2--2--2-----------------------------------------------------------|
E-----0---0--0--0-----------------------------------------------------------|
                           repeat

  Chorus

e---------------------------------------------------------------------------|
B---------------------------------------------------------------------------|
G------------------12--12-----------------------12--12----------------------|
D--14--14--12--12--12--12--12---14--14--12--12--12--12--12------------------|
A--14--14--12--12--10--10--12---14--14--12--12--10--10--12------------------|
E--12--12--10--10----------10---12--12--10--10----------10------------------|

  A second guitar plays this part during the chorus on the album.

e---------------------------------------------------------------------------|
B--10h12-10h12\-------------------------------------------------------------|
G---------------------------------------------------------------------------|
D---------------------------------------------------------------------------|
A---------------------------------------------------------------------------|
E---------------------------------------------------------------------------|

  Solo

e---------------------------------------------------------------------------|
B---------10--10b--10pb-10pb-10pb--8----------------------------------------|
G--10h12------------------------------9\-------8--10br--10br--10br--7--9\---|
D-----------------------------------------/10-------------------------------|
A---------------------------------------------------------------------------|
E---------------------------------------------------------------------------|

  1:58


e---------------------------------------------------------------------------|
B--8--10--8--10b-10pb-10pb-10pb-10pbr--8-----------8-10-10br--8---8---------|
G----------------------------------------9--9-9-9---------------9-----------|
D---------------------------------------------------------------------------|
A---------------------------------------------------------------------------|
E-------------------------------------------------------------------/10--12-|

  2:03

e---------------------------------------------------------------------------|
B----------------------------------10p8---8--10p8---8---10--8--10b-10b-10b--|
G-----7--8--10--8--10br--8---8--9-------9---------9-------------------------|
D--9-----------------------9------------------------------------------------|
A---------------------------------------------------------------------------|
E---------------------------------------------------------------------------|

  2:12

e------------------------------------------12b----12b-12b---15-17-15-17-15--|
B-10b-10b-10b-10b-10b-------------------------------------------------------|
G----------------------12p10----12---9--7-----------------------------------|
D----------------------------12---------------------------------------------|
A---------------------------------------------------------------------------|
E---------------------------------------------------------------------------|

  2:16

e--17b--17b-17b--17b--17b-17b--17b-17b--17b--17b-17b--17b--17b-17b--17b-----|
B---------------------------------------------------------------------------|
G---------------------------------------------------------------------------|
D---------------------------------------------------------------------------|
A---------------------------------------------------------------------------|
E---------------------------------------------------------------------------|

  2:23

Then you return to the verse and the song kind of sputters out.


Here is a quick guide to how I denote certain actions on the guitar

Slide up = /

Slide Down = \

Bend = b

Pre Bend = pb

Release = r

Hammer On = h

Pull Off = p

Vibrato = v

Mute = x

Hold Vibrato = v~~
Tap to rate this tab
 
# A B C D E F G H I J K L M N O P Q R S T U V W X Y Z