Song name
# A B C D E F G H I J K L M N O P Q R S T U V W X Y Z

The Sword - Celestial Crown tab

Play the riffs in order, only once through unless I have detailed otherwise.

Have fun. Comments and/or moaning are welcome!

The Sword - Age of Winters

Tuning C standered (Not drop C, it sounds far too low for that)

Celestial Crown

c--------------------------------------------------------------------------------------------------|
G--------------------------------------------------------------------------------------------------|
Eb-------------------------------------------------------------------------------7-7-7-7-7-7-7-7---|
Bb-------------------------------------------------------------------------------7-7-7-7-7-7-7-7---|
F--7--------/7--------/7--------/7--------/7--------/7--------/7--------/7------5-5-5-5-5-5-5-5----|
C--0---12\---0---12\---0---12\---0---12\---0---12\---0---12\---0---12\---0---12\-------------------|

                                        x2
c ------------------------------------|
G ------------------------------------|
Eb-------------------------------7----|
Bb-------------------------------7----|
F ---5h7-5h7-5h7-5h7-5h7-5h7-5h7-5----|
C --0---0---0---0---0---0---0---0-----|

                                      x2
c ----------------------------------|
G ----------------------------------|
Eb--9--9--12--12--14--14--16--14----|
Bb----------------------------------|
F --7--7--10--10--12--12--14--12----|
C ----------------------------------|

                                    x2
c --------------------------------|
G --------------------------------|
Eb--------------------------------|
Bb--------------------------------|
F --7-7-7-7-7-7---5h7p5----5------|
C --------------0--------7---7-5--|


c --------------------------------------------------|
G --------------------------------------------------|
Eb--------------------------------------------------|
Bb-------------------------------7--7--x8--5/7\5----|
F --7-7-7-7-7-7-------5-5h7p5----7--7--x8--5/7\5----|
C --------------0-5h7---------7--5--5--x6--3/5\3----|


c ----------------------------|
G ----------------------------|
Eb--/9-/9-/9-/9-/9-/9-/9-7----|
Bb--/9-/9-/9-/9-/9-/9-/9-7----|
F --/7-/7-/7-/7-/7-/7-/7-5----|
C ----0--0--0--0--0--0--0-----|


c ----------------------------|
G ----------------------------|
Eb--/9-/9-/9-/9-/9-/9----7----|
Bb--/9-/9-/9-/9-/9-/9----7----|
F --/7-/7-/7-/7-/7-/7----5----|
C ----0--0--0--0--0-----------|
Tap to rate this tab
 
# A B C D E F G H I J K L M N O P Q R S T U V W X Y Z