Guitaretab - guitar tabs
Song name
# A B C D E F G H I J K L M N O P Q R S T U V W X Y Z

The Tallest Man On Earth - Where Do My Bluebirds Fly tab

|Where Do My Bluebirds Fly - The Tallest Man On Earth|        

Tabbed by: Tom Stephenson
Tuning: Open D Minor (DGDGA#D)
Capo on 8th fret(?)

The great closer from the album "Shallow Grave". The fingerpicking is what
makes this song, so try to nail it and then begin to improvise using the
chords. I'm unsure of the way he plays the middle of the chorus, so I just
provided the arpeggios that I use. You'll need to listen to the song to
figure out how many times to repeat each part. The "Second Time" parts
found in this tab are used to end each part. Good luck!

                                                                Second Time
d |------------------------------------------------------------|-----------|
G |--3--3-----33----2--2-----22----0--0----00-----2--2-----22--|--2--2---2-|
D |--5--5-----55----4--4-----44----1--1----11-----3--3-----33--|--3--3-----|
G |-0--0-0---0--0--0-0--0---0--0-------------------------------|-----------|
D |-------------------------------1--1-1---1--1--3--3-3---3--3-|-3--3-3-3--|

[ Tab from: ]
d |----------0----------1----------3-------------0-------------------------|
G |---2/3--------2--2-------0--0-------0---0h2--------2--------------------|
D |---5-------------4----------1-----------3-------------------------------|
G |-0-----0-0-0-0--0-0-0-0-0-----------------------------------------------|
D |---------------------------1-1-1-1-1---3---3-3-3-3-4--------------------|


                                                      Second Time
d |-------0-----------0------0----2/5--0-----|-------0---------------------|
G |--0--------0--2--------2------------------|--2--------0------Repeat-----|
D |--1-----------3---------------------------|--3---------------Twice------|
G |--------------------------3----2----0-----|-----------------------------|
D |-1--1-1-1-1--3--3-3-3-3-----------------3-|-3--3-3-3-3------------------|

| /  slide up
| \  slide down
| h  hammer-on
| p  pull-off
| ~  vibrato
| +  harmonic
| x  Mute note

Related for Where Do My Bluebirds Fly tab