Song name
# A B C D E F G H I J K L M N O P Q R S T U V W X Y Z

The Used - Blue And Yellow Acoustic tab

i know this song is pretty much dead to our time but it reminds me of the best girl i
had so i decided to put down my own tabs for acoustic since nobody really had a good one.
is my first tab ive never done one before any questions feel free to email me at 
thanks and please rate

Drop D

Intro:
|-----------------x-----------------------------------------------|
|-6-6-6-6s---5-5--x----3-3-3-3-3-3--------------------------------|
|-x-x-x-x----x-x--x----2-2-2-2-2-2--------------------------------|
|-3-3-3-3s---2-2--x----3-3-3-3-3-3--------------------------------|
|-0-0-0-0----0-0--x----1-1-1-1-1-1--------------------------------|
|-0-0-0-0----0-0--x----0-0-0-0-0-0--------------------------------|

Chorus:
|-----------------------------------------------------------------|
|-3-3-3-3s---5-5-5-5-5--------------------------------------------|
|-x-x-x-x----x-x-x-x-x---5-5-5-5---5-5-5-5-5----------------------|
|-3-3-3-3s---5-5-5-5-5---3-3-3-3---3-3-3-3-3----------------------|
|-1-1-1-1s---3-3-3-3-3---0-0-0-0---3-3-3-3-3----------------------|
|-0-0-0-0----0-0-0-0-0---0-0-0-0---3-3-3-3-3----------------------|
Tap to rate this tab
 
# A B C D E F G H I J K L M N O P Q R S T U V W X Y Z