Song name
# A B C D E F G H I J K L M N O P Q R S T U V W X Y Z

The Whitest Boy Alive - Dead End tab

-------------------------------------------------------------------------------
			    Whitest Boy Alive - Dead End
-------------------------------------------------------------------------------
Tabbed by: PimvdMoosdijk


Tuning: Standard (EADGBe)

This is played during the whole song:

e|----7-7-7--7--7--7-7----------------------------------------------------|
B|----8-8-8--7--8--8-7----------------------------------------------------|
G|----9-9-9--7--9--9-7----------------------------------------------------|
D|------------------------------------------------------------------------|
A|------------------------------------------------------------------------|
E|------------------------------------------------------------------------|

Cool solo:
(10's 11's and 12's, not 1's or 2's)

e|------------------------------------------------------------------------|
B|-------------10----12---------------------------------------------------|
G|--11----9------------------11-----9-------------------------------------|
D|-----99---99----99-----999----99----99--11-99--12-999-------------------|
A|------------------------------------------------------------------------|
E|------------------------------------------------------------------------|

e|-------------------------10-----12--------------------------------------|
B|-------------10----12---------------------------------------------------|
G|--11----9---------------------------------------------------------------|
D|-----99---99----99----99----99----99--11--99--12-999--------------------|
A|------------------------------------------------------------------------|
E|------------------------------------------------------------------------|

e|------------------------10----12---12-12-12-14~-------------------------|
B|-------------10----12---------------------------------------------------|
G|--11----9---------------------------------------------------------------|
D|-----99---99----99----99---99---99--------------------------------------|
A|------------------------------------------------------------------------|
E|------------------------------------------------------------------------|


| /  slide up
| \  slide down
| h  hammer-on
| p  pull-off
| ~  vibrato
| +  harmonic
| x  Mute note
============================================================================
Tap to rate this tab
# A B C D E F G H I J K L M N O P Q R S T U V W X Y Z