Song name
# A B C D E F G H I J K L M N O P Q R S T U V W X Y Z

The Whitest Boy Alive - Courage tab

Aldo Lopez :D


|---------------------------------------------------------------------|
|---xxxxxxx--7-xx7-8-xxx--7-xx7-8-xxx-7-xx7-8-xx8-x8--88--88-8--7-----|
|---xxxxxxx--7-xx7-9-xxx--7-xx7-9-xxx-7-xx7-9-xx9-x9--99--99-9--7-----|
|---xxxxxxx--9-xx7-9-xxx--9-xx7-9-xxx-9-xx7-9-xx9-x9--99--99-9--9-----|
|---------------------------------------------------------------------|
|---------------------------------------------------------------------|

|---------------------------------------------------------------------|
|----------------7-8------7---7-8-----7---7-8---8--8--88--88-8--7-----|
|----------------7-9------7---7-9-----7---7-9---9--9--99--99-9--7-----|
|----------------7-9------9---7-9-----9---7-9---9--9--99--99-9--9-----|
|---------------------------------------------------------------------|
|---------------------------------------------------------------------|

|---------------------------------------------------------------------|
|----------------7-8------7---7-8-----7---7-8---8--8--88--88-8--7-----|
|----------------7-9------7---7-9-----7---7-9---9--9--99--99-9--7-----|
|----------------7-9------9---7-9-----9---7-9---9--9--99--99-9--9-----|
|---------------------------------------------------------------------|
|---------------------------------------------------------------------|

Having said what i needed to
and shown what i feel for you
my intentions are on the table
now it's time for you to do the same
but no love can be guaranteed
it don't come with no warranties
it's a leap that you have to make
it's a risk we all must take

|---------------------------------------------------------------------|
|------------7---7-8------7---7-8-----7---7-8---8--8--88--88-8--7-----|
|------------7---7-9------7---7-9-----7---7-9---9--9--99--99-9--7-----|
|------------9---7-9------9---7-9-----9---7-9---9--9--99--99-9--9-----|
|---------------------------------------------------------------------|
|---------------------------------------------------------------------|

well it's clear we're the cutting line
walk out deep for the longest time
but i can't offer any help
you must do this all by yourself

        and no love can be guaranteed
|---------------------------------------------------------------------|
|---7----------8------------------------------------------------------|
|---7----------9------------------------------------------------------|
|---9----------9------------------------------------------------------|
|---------------------------------------------------------------------|
|---------------------------------------------------------------------|
       it don't come with no warranties
|---------------------------------------------------------------------|
|---7----------8------------------------------------------------------|
|---7----------9------------------------------------------------------|
|---9----------9------------------------------------------------------|
|---------------------------------------------------------------------|
|---------------------------------------------------------------------|
       so wake up or wake up alone
|---------------------------------------------------------------------|
|---7----------8------------------------------------------------------|
|---7----------9------------------------------------------------------|
|---9----------9------------------------------------------------------|
|---------------------------------------------------------------------|
|---------------------------------------------------------------------|
       if you want me show some
|---------------------------------------------------------------------|
|---8---------8-------8-----------------------------------------------|
|---9---------9-------9-----------------------------------------------|
|---9---------9-------9-----------------------------------------------|
|---------------------------------------------------------------------|
|---------------------------------------------------------------------|

courage,courage,courage
courage,courage,courage
courage,courage,courage
courage,courage,courage
courage,courage, show some

courage,courage,courage
courage,courage,courage
show some
courage,courage,courage
courage,courage,courage

|-------------------------------------------------------------x4------|
|---------------------------------------------------------------------|
|---------------------------------------------------------------------|
|----9-9-9---5--7--9---------------10-10-10---9--5--------------------|
|---------------------------------------------------------------------|
|---------------------------------------------------------------------|

|-----------------------------------------------------------x8--------|
|----77--88--77--88---------------------------------------------------|
|----77--99--77--99---------------------------------------------------|
|----99--99--77--99---------------------------------------------------|
|---------------------------------------------------------------------|
|---------------------------------------------------------------------|
Tap to rate this tab
# A B C D E F G H I J K L M N O P Q R S T U V W X Y Z