Song name
# A B C D E F G H I J K L M N O P Q R S T U V W X Y Z

The Whitest Boy Alive - Done With You tab

-------------------------------------------------------------------------------
			     DONE WITH YOU - The Whitest Boy Alive
-------------------------------------------------------------------------------
Tabbed by:  olisax
Email:  oli_sax@yahoo.com

This is most of the lead guitar part, some bits missing but can easily be figured out/improvised.
Can't figure out the chords he is playing so could somebody please use this as a guide, 
along with the bass tab, and re-submit with chords.

Tuning:  Standard

e|--------------------------------------------------------------------------|
B|--------------------------------------------------------------------------|
G|14--12--11~----12--14--10~-------9----------12-x-12-x-12-x-12-12----------|
D|------------------------------10---10-10/12-------------------------------|
A|--------------------------------------------------------------------------|
E|--------------------------------------------------------------------------|

e|--------------------------------------------------------------------------|
B|--------------------------------------------------------------------------|
G|11-x-11-x-11-x-11-12-14-12-11--10-x-10-x-10-x-10-10--9-x-9-x-9-x-9-9------|
D|--------------------------------------------------------------------------|
A|--------------------------------------------------------------------------|
E|--------------------------------------------------------------------------|

e|--------------------------------------------------------------------------|
B|--------------------------------------------------------------------------|
G|-7-7-7-7-7----------------------------------------------------------------|
D|0-0-0-0-0-----------------------------------------------------------------|
A|--------------------------------------------------------------------------|
E|--------------------------------------------------------------------------|



************************************

| /   slide up
| \   slide down
| h   hammer-on
| p   pull-off
| ~   vibrato
| +   harmonic
| x   Mute note
| b   Bend
| pb  Pre-bend
| br  Bend release
| pbr Pre-bend release
| brb Bend release bend

************************************
Tap to rate this tab
 
# A B C D E F G H I J K L M N O P Q R S T U V W X Y Z