Song name
# A B C D E F G H I J K L M N O P Q R S T U V W X Y Z

The Whitest Boy Alive - Figures tab

Figures
Whitest Boys Alive
Tabs by Bryan Yang
Open to any suggestions, corrections etc.
contact me at pastthehorizon@gmail.com

the tuning is not exactly in standard but close
Intro/Verse

e-------x------0----------x--x---x--x---0--------------------|
B---19--x--19--0----------x--19--x--19--0--------------------|
G---x---x--x---0---0---0--x--x---x--x---0---0---0---0--------|
D---19--x--19--0---0---0--x--19--x--19--0---0---0---0--------|
A---17--x--17--0---19--0--x--17--x--17--0---19--0---19-------|
E---x---x--x---0---0---0--x--x---x--x---0---0---0---0--------|
    ^   v  ^   v   ^   v  ^  v   ^  v   ^   v   ^  v
its either
e---x---x--x---0----------x--x---x--x---0--------------------|
B---17--x--17--0----------x--17--x--17--0--------------------|
G---x---x--x---0---0---0--x--x---x--x---0---0---0---0--------|
D---16--x--16--0---0---0--x--16--x--16--0---0---0---0--------|
A---15--x--x---0---17--0--x--15--x--15--0---17--0---17-------|
E---x---x--x---0---0---0--x--x---x--x---0---0---0---0--------|
or
e---x---x--x---0----------x--x---x--x---0--------------------|
B---17--x--17--0----------x--17--x--17--0--------------------|
G---x---x--x---0---0---0--x--x---x--x---0---0---0---0--------|
D---17--x--17--0---0---0--x--17--x--17--0---0---0---0--------|
A---15--x--x---0---17--0--x--15--x--15--0---17--0---17-------|
E---x---x--x---0---0---0--x--x---x--x---0---0---0---0--------|
but i hear the 16 in the song so yeah ahha
End intro with the strum he does with
e---x---|
B---17--|
G---x---|
D---17--|
A---15--|
E---x---|

Break
e---0---0----|
B---0---0----|
G---0---11---|
D---16--14---|
A---14--12---|
E---x---x----|
you hear
e---0---|
B---0---|
G---0---|
D---14--|
A---14--|
E---x---|once in awhile in there

Sometimes they add like

e---0-------------------------0------------|
B---19------------------------0------------|
G---0-------------------------11-----------|
D---16-or do something like---0------------|
A---14------------------------12-----------|
E---x-------------------------x------------|

the outro is really a combination of a lot of these notes with muting, pretty much a 
styled strum.
Tap to rate this tab
# A B C D E F G H I J K L M N O P Q R S T U V W X Y Z