Song name
# A B C D E F G H I J K L M N O P Q R S T U V W X Y Z

The Whitest Boy Alive - Fireworks tab

-------------------------------------------------------------------------------
		 Fireworks - The Whitest Boy Alive
-------------------------------------------------------------------------------
Tabbed by: cflat
Email: cflat@earthlink.net

Gtr and Bass -- that's why it's so long, sorry if you hate long tabs.

Tuning: e,a,d,g,b,e
Tempo: 126 - 130


  INTRO

     Elect. Gtr
  Bbm                                  Fm
e|1----x--x----1----x---x----1---x----|1----x--x----1----x---x----1---x----|
B|2----x--x----2----x---x----2---x----|1----x--x----1----x---x----1---x----|
G|3----x--x----3----x---x----3---x----|1----x--x----1----x---x----1---x----|
D|3----x--x----3----x---x----3---x----|3----x--x----3----x---x----3---x----|
A|------------------------------------|------------------------------------|
E|------------------------------------|------------------------------------|
 |                                                                         |
 |   Bass Gtr                                                              |
G|------------------------------------|------------------------------------|
D|------------------------------------|------------------------------------|
A|------------------------------------|------------------------------------|
E|------------------------------------|------------------------------------|

  Eb                                   Ebm
e|x----x--x----x----x---x----x---x----|x----x--x----x----x---x----x---x----|
B|4----x--x----4----x---x----4---x----|4----x--x----4----x---x----4---x----|
G|3----x--x----3----x---x----3---x----|3----x--x----3----x---x----3---x----|
D|5----x--x----5----x---x----5---x----|4----x--x----4----x---x----4---x----|
A|------------------------------------|------------------------------------|
E|------------------------------------|------------------------------------|
 |                                                                         |
G|------------------------------------|------------------------------------|
D|------------------------------------|------------------------------------|
A|------------------------------------|------------------------------------|
E|------------------------------------|------------------------------------|

  Bbm                                  Fm
e|1----x--x----1----x---x----1---x----|1----x--x----1----x---x----1---x----|
B|2----x--x----2----x---x----2---x----|1----x--x----1----x---x----1---x----|
G|3----x--x----3----x---x----3---x----|1----x--x----1----x---x----1---x----|
D|3----x--x----3----x---x----3---x----|3----x--x----3----x---x----3---x----|
A|------------------------------------|------------------------------------|
E|------------------------------------|------------------------------------|
 |                                                                         |
G|------------------------------------|------------------------------------|
D|------------------------------------|------------------------------------|
A|------------------------------------|------------------------------------|
E|------------------------------------|------------------------------------|

  Eb                                   Ebm
e|x----x--x----x----x---x----x---x----|x----x--x----x----x---x----x---x----|
B|4----x--x----4----x---x----4---x----|4----x--x----4----x---x----4---x----|
G|3----x--x----3----x---x----3---x----|3----x--x----3----x---x----3---x----|
D|5----x--x----5----x---x----5---x----|4----x--x----4----x---x----4---x----|
A|------------------------------------|------------------------------------|
E|------------------------------------|------------------------------------|
 |                                                                         |
G|------------------------------------|------------------------------------|
D|------------------------------------|4---3----4---3----4---3----4---3----|
A|------------------------------------|------------------------------------|
E|------------------------------------|------------------------------------|

  Bbm                                  Ab
e|6----x--x----6----x---x----6---x----|4----x--x----4----x---x----4---x----|
B|6----x--x----6----x---x----6---x----|4----x--x----4----x---x----4---x----|
G|6----x--x----6----x---x----6---x----|5----x--x----5----x---x----5---x----|
D|8----x--x----8----x---x----8---x----|6----x--x----6----x---x----6---x----|
A|8----x--x----8----x---x----8---x----|6----x--x----6----x---x----6---x----|
E|6----x--x----6----x---x----6---x----|4----x--x----4----x---x----4---x----|
 |                                                                         |
G|------------------------------------|------------------------------------|
D|------------------------------------|------------------------------------|
A|1------------1--------x----1---0----|------------------------------------|
E|------------------------------------|4------------4--------x----4--------|

  Ebm7                                 Ebm7
e|6----x--x----6----x---x----6---x----|6----x--x----6----x---x----6---x----|
B|7----x--x----7----x---x----7---x----|7----x--x----7----x---x----7---x----|
G|6----x--x----6----x---x----6---x----|6----x--x----6----x---x----6---x----|
D|8----x--x----8----x---x----8---x----|8----x--x----8----x---x----8---x----|
A|6----x--x----6----x---x----6---x----|6----x--x----6----x---x----6---x----|
E|------------------------------------|------------------------------------|
 |                                                                         |
G|------------------------------------|------------------------------------|
D|1------------1-------------1---1----|1------------1----------------------|
A|------------------------------------|------------------------------------|
E|------------------------------------|----------------------1----4--------|

  Bbm                                  Ab
e|6----x--x----6----x---x----6---x----|4----x--x----4----x---x----4---x----|
B|6----x--x----6----x---x----6---x----|4----x--x----4----x---x----4---x----|
G|6----x--x----6----x---x----6---x----|5----x--x----5----x---x----5---x----|
D|8----x--x----8----x---x----8---x----|6----x--x----6----x---x----6---x----|
A|8----x--x----8----x---x----8---x----|6----x--x----6----x---x----6---x----|
E|6----x--x----6----x---x----6---x----|4----x--x----4----x---x----4---x----|
 |                                                                         |
G|------------------------------------|------------------------------------|
D|------------------------------------|------------------------------------|
A|1------------1--------x----1--------|------------------------------------|
E|------------------------------------|4------------4--------1----4--------|

  Eb                                   Ebm
e|6----x--x----6----x---x----6---x----|11---x--x----11----x---x----x----x--|
B|8----x--x----8----x---x----8---x----|11---x--x----11----x---x----x----x--|
G|8----x--x----8----x---x----8---x----|11---x--x----11----x---x----x----x--|
D|8----x--x----8----x---x----8---x----|13---x--x----13----x---x----x----x--|
A|6----x--x----6----x---x----6---x----|13---x--x----13----x---x----x----x--|
E|------------------------------------|11---x--x----11----x---x----x----x--|
 |                                                                         |
G|------------------------------------|------------------------------------|
D|1------------1--------x----1--------|1--------1--------------------------|
A|------------------------------------|------------------4----3------------|
E|------------------------------------|------------------------------------|


   VERSE 1 & 2

  Bbm                                  Fm
e|1----x--x----1----x---x----1---x----|1----x--x----1----x---x----1---x----|
B|2----x--x----2----x---x----2---x----|1----x--x----1----x---x----1---x----|
G|3----x--x----3----x---x----3---x----|1----x--x----1----x---x----1---x----|
D|3----x--x----3----x---x----3---x----|3----x--x----3----x---x----3---x----|
A|------------------------------------|------------------------------------|
E|------------------------------------|------------------------------------|
 |                                                                         |
G|------------------------------------|------------------------------------|
D|------------------------------------|------------------------------------|
A|1------------1-------------1--------|------------------------------------|
E|----------------------1-------------|4------------4--------1----4--------|
      you   keep   your   cards   so   close   to   your   chest
      the   heat   is   on   for   the   action   to   speed   up   and


  Eb                                   Ebm
e|x----x--x----x----x---x----x---x----|x----x--x----x----x---x----x---x----|
B|4----x--x----4----x---x----4---x----|4----x--x----4----x---x----4---x----|
G|3----x--x----3----x---x----3---x----|3----x--x----3----x---x----3---x----|
D|5----x--x----5----x---x----5---x----|4----x--x----4----x---x----4---x----|
A|------------------------------------|------------------------------------|
E|------------------------------------|------------------------------------|
 |                                                                         |
G|------------------------------------|------------------------------------|
D|1------------1-------------1---1----|1------------1----------------------|
A|------------------------------------|------------------------------------|
E|------------------------------------|----------------------1----4--------|
   you're   making   me   confused
   tension   to   ease


  Bbm                                  Fm
e|1----x--x----1----x---x----1---x----|1----x--x----1----x---x----1---x----|
B|2----x--x----2----x---x----2---x----|1----x--x----1----x---x----1---x----|
G|3----x--x----3----x---x----3---x----|1----x--x----1----x---x----1---x----|
D|3----x--x----3----x---x----3---x----|3----x--x----3----x---x----3---x----|
A|------------------------------------|------------------------------------|
E|------------------------------------|------------------------------------|
 |                                                                         |
 |                                                                         |
G|------------------------------------|------------------------------------|
D|------------------------------------|------------------------------------|
A|1------------1--------x----1--------|------------------------------------|
E|------------------------------------|4------------4--------1----4--------|
      it's   hidden   deep   what   you   need   to   address
    we   could   keep   talking   but   only     be     certain   through


  Eb                                   Ebm
e|x----x--x----x----x---x----x---x----|x----x--x----x----x---x----x---x----|
B|4----x--x----4----x---x----4---x----|4----x--x----4----x---x----4---x----|
G|3----x--x----3----x---x----3---x----|3----x--x----3----x---x----3---x----|
D|5----x--x----5----x---x----5---x----|4----x--x----4----x---x----4---x----|
A|------------------------------------|------------------------------------|
E|------------------------------------|------------------------------------|
 |                                                                         |
G|------------------------------------|------------------------------------|
D|1------------1--------x----1--------|4--------4--------4---6\------------|
A|------------------------------------|------------------------------------|
E|------------------------------------|------------------------------------|
  if   you   want   it   to   resume
  physical   means


  CHORUS

  Bbm                                  Ab
e|6----x--x----6----x---x----6---x----|4----x--x----4----x---x----4---x----|
B|6----x--x----6----x---x----6---x----|4----x--x----4----x---x----4---x----|
G|6----x--x----6----x---x----6---x----|5----x--x----5----x---x----5---x----|
D|8----x--x----8----x---x----8---x----|6----x--x----6----x---x----6---x----|
A|8----x--x----8----x---x----8---x----|6----x--x----6----x---x----6---x----|
E|6----x--x----6----x---x----6---x----|4----x--x----4----x---x----4---x----|
 |                                                                         |
G|------------------------------------|------------------------------------|
D|------------------------------------|------------------------------------|
A|1------------1-------------1--------|------------------------------------|
E|----------------------1-------------|4-------------4-------1----4--------|
    aching     and     longing     never    ending        fireworks
    patience    is    just    another   word     for    getting    old


  Ebm7                                 Ebm7
e|6----x--x----6----x---x----6---x----|6----x--x----6----x---x----6---x----|
B|7----x--x----7----x---x----7---x----|7----x--x----7----x---x----7---x----|
G|6----x--x----6----x---x----6---x----|6----x--x----6----x---x----6---x----|
D|8----x--x----8----x---x----8---x----|8----x--x----8----x---x----8---x----|
A|6----x--x----6----x---x----6---x----|6----x--x----6----x---x----6---x----|
E|------------------------------------|------------------------------------|
 |                                                                         |
G|------------------------------------|------------------------------------|
D|1------------1-------------1----1---|1------------1----------------------|
A|------------------------------------|------------------------------------|
E|------------------------------------|----------------------1----4--------|



  Bbm                                  Ab
e|6----x--x----6----x---x----6---x----|4----x--x----4----x---x----4---x----|
B|6----x--x----6----x---x----6---x----|4----x--x----4----x---x----4---x----|
G|6----x--x----6----x---x----6---x----|5----x--x----5----x---x----5---x----|
D|8----x--x----8----x---x----8---x----|6----x--x----6----x---x----6---x----|
A|8----x--x----8----x---x----8---x----|6----x--x----6----x---x----6---x----|
E|6----x--x----6----x---x----6---x----|4----x--x----4----x---x----4---x----|
 |                                                                         |
G|------------------------------------|------------------------------------|
D|------------------------------------|------------------------------------|
A|1------------1-------------1----0---|------------------------------------|
E|----------------------1-------------|4-------------4-------1----4--------|

   let it be    let it be    let it be     oh   baby   let   it   hurt
   resolution   just   as   impossible   as    letting    go



*second time jump down to CONTINUE bar

    Cm                                   Eb
  e|8----x--x----8----x---x----8---x----|11---x--x----11----x---x----x---x-||
  B|8----x--x----8----x---x----8---x----|11---x--x----11----x---x----x---x-||
  G|8----x--x----8----x---x----8---x----|12---x--x----12----x---x----x---x-||
  D|10---x--x----10---x---x----10--x----|13---x--x----13----x---x----x---x-||
  A|10---x--x----10---x---x----10--x----|13---x--x----13----x---x----x---x-||
  E|8------------8-------------8--------|11---x--x----11----x---x----x---x-||
   |                                                                       ||
  G|------------------------------------|----------------------------------||
  D|------------------------------------|----------------------------------||
  A|3------------3--------0-----3-------|/6-------6--------4----3----------||
  E|------------------------------------|----------------------------------||


*First time go back up to verse 2


*CONTINUE

  Eb                                   Ebm
e|6----x--x----6----x---x----6---x----|11---x--x----11----x---x------x--x--|
B|8----x--x----8----x---x----8---x----|11---x--x----11----x---x------6--6--|
G|8----x--x----8----x---x----8---x----|11---x--x----11----x---x------5--5--|
D|8----x--x----8----x---x----8---x----|13---x--x----13----x---x------6--6--|
A|6----x--x----6----x---x----6---x----|13---x--x----13----x---x------------|
E|------------------------------------|11---x--x----11----x---x------------|
 |                                                                         |
G|------------------------------------|------------------------------------|
D|1------------1--------x----1--------|1--------1--------------------------|
A|------------------------------------|------------------4----3------------|
E|------------------------------------|------------------------------------|



  BRIDGE

  DbMaj7                               Ab
e|x-----------------------------x--x--|x-----------------------------x--x--|
B|6-----------------------------4--4--|4-----------------------------7--7--|
G|5-----------------------------5--5--|5-----------------------------6--6--|
D|6-----------------------------6--6--|6-----------------------------8--8--|
A|------------------------------------|------------------------------------|
E|------------------------------------|------------------------------------|
 |                                                                         |
G|------------------------------------|------------------------------------|
D|------------------------------------|------------------6---6---6---6-----|
A|4---4---4---4-----6---6---6---6-----|8---8---8---8-----------------------|
E|------------------------------------|------------------------------------|

  Ebm7                                 Bbm
e|x-----------------------------x--x--|x-----------------------------x--x--|
B|7-----------------------------6--6--|6-----------------------------6--6--|
G|6-----------------------------6--6--|6-----------------------------5--5--|
D|8-----------------------------8--8--|8-----------------------------6--6--|
A|------------------------------------|------------------------------------|
E|------------------------------------|------------------------------------|
 |                                                                         |
G|------------------------------------|------------------------------------|
D|------------------------------------|------------------8---8---8---8-----|
A|6---6---6---6-----8---8---8---8-----|9---9---9---9-----------------------|
E|------------------------------------|------------------------------------|

  DbMaj7                               Ab
e|x-----------------------------x--x--|x-----------------------------x--x--|
B|6-----------------------------4--4--|4-----------------------------7--7--|
G|5-----------------------------5--5--|5-----------------------------6--6--|
D|6-----------------------------6--6--|6-----------------------------8--8--|
A|------------------------------------|------------------------------------|
E|------------------------------------|------------------------------------|
 |                                                                         |
G|------------------------------------|------------------------------------|
D|------------------------------------|------------------11---11---11---11-|
A|8---8---8---8----10---10---10---10--|11---11---11---11-------------------|
E|------------------------------------|------------------------------------|

  Ebm7                                 Bbm                     Bm
e|x-----------------------------x--x--|x------------------6----7-----------|
B|7-----------------------------6--6--|6------------------6----7-----------|
G|6-----------------------------6--6--|6------------------6----7-----------|
D|8-----------------------------8--8--|8------------------8----9-----------|
A|------------------------------------|-------------------9----10----------|
E|------------------------------------|------------------------------------|
 |                                                                         |
G|------------------------------------|------------------------------------|
D|------------------------------------|------------------------------------|
A|6---6---6---6-----8---8---8---8-----|------------------------------------|
E|------------------------------------|1---1---1---1------2----3-----------|


  GTR SOLO

  Bbm                                  Fm
e|------------------------------------|------------------------------------|
B|----------------------9-------------|----------------------9-------------|
G|------------------------------------|------------------------------------|
D|11-------------------------11---10--|(10)-----------------------10---8---|
A|------------------------------------|------------------------------------|
E|------------------------------------|------------------------------------|
 |                                                                         |
G|------------------------------------|------------------------------------|
D|------------------------------------|------------------------------------|
A|1------------1-------------1--------|------------------------------------|
E|----------------------1-------------|4-------------4-------1----4--------|

  Eb                                   Ebm
e|------------------------------------|------------------------------------|
B|------------------------------------|------------------------------------|
G|------------------------------------|------------------------------------|
D|(8)---------------------------------|-------------------8--/--10---------|
A|------------------------------------|------------------------------------|
E|------------------------------------|------------------------------------|
 |                                                                         |
G|------------------------------------|------------------------------------|
D|1------------1--------x----1--------|1------------1----------------------|
A|------------------------------------|------------------------------------|
E|------------------------------------|----------------------1----4--------|

  Bbm                                  Fm
e|------------------------------------|------------------------------------|
B|----------------------9-------------|------------------------------------|
G|------------------------------------|--------------------------------10--|
D|11-------------------------11---10--|(10)------------------11---13-------|
A|------------------------------------|------------------------------------|
E|------------------------------------|------------------------------------|
 |                                                                         |
G|------------------------------------|------------------------------------|
D|------------------------------------|------------------------------------|
A|1------------1-------------1--------|------------------------------------|
E|----------------------1-------------|4-------------4-------1----4--------|

  Eb                                   Ebm
e|------------------------------------|------------------------------------|
B|------------------------------------|------------------------------------|
G|(10)--------------------------------|------------------------------------|
D|------------------------------------|------------------------------------|
A|------------------------------------|------------------------------------|
E|------------------------------------|------------------------------------|
 |                                                                         |
G|------------------------------------|------------------------------------|
D|1------------1--------x----1--------|1------------1--------x----1--h--3--|
A|------------------------------------|------------------------------------|
E|------------------------------------|------------------------------------|

  Bbm                                  Ab
e|------------------------------------|------------------------------------|
B|---------------------13-------------|----------------------11------------|
G|10-------------------------10---8---|(8)------------------------8--------|
D|------------------------------------|--------------------------------8---|
A|------------------------------------|------------------------------------|
E|------------------------------------|------------------------------------|
 |                                                                         |
G|------------------------------------|------------------------------------|
D|------------------------------------|------------------------------------|
A|1------------1-------------1--------|------------------------------------|
E|----------------------1-------------|4-------------4-------1----4--------|

  Ebm7                                 Ebm7
e|------------------------------------|------------------------------------|
B|------------------------------------|------------------------------------|
G|------------------------------------|-----------------------8------------|
D|(8)---------------------------------|------------------8-----------------|
A|------------------------------------|------------------------------------|
E|------------------------------------|------------------------------------|
 |                                                                         |
G|------------------------------------|------------------------------------|
D|1------------1--------x----1--------|1------------1----------------------|
A|------------------------------------|------------------------------------|
E|------------------------------------|----------------------1----4--------|

  Bbm                                  Ab
e|------------------------------------|-------------------------------13---|
B|---------------------13-------------|----------------------11------------|
G|8/10-----------------------10---8---|(8)------------------------8--------|
D|------------------------------------|------------------------------------|
A|------------------------------------|------------------------------------|
E|------------------------------------|------------------------------------|
 |                                                                         |
G|------------------------------------|------------------------------------|
D|------------------------------------|------------------------------------|
A|1------------1-------------1--------|------------------------------------|
E|----------------------1-------------|4-------------4-------1----4--------|

  Eb                                   Ebm
e|(13)--------------------------------|------------------------------------|
B|------------------------------------|------------------------------------|
G|------------------------------------|------------------------------------|
D|------------------------------------|------------------------------------|
A|------------------------------------|------------------------------------|
E|------------------------------------|------------------------------------|
 |                                                                         |
G|------------------------------------|------------------------------------|
D|1------------1--------x----1--------|1--------1--------------------------|
A|------------------------------------|------------------4----3------------|
E|------------------------------------|------------------------------------|


VERSE 3

  Bbm                                  Fm
e|1----x--x----1----x---x----1---x----|1----x--x----1----x---x----1---x----|
B|2----x--x----2----x---x----2---x----|1----x--x----1----x---x----1---x----|
G|3----x--x----3----x---x----3---x----|1----x--x----1----x---x----1---x----|
D|3----x--x----3----x---x----3---x----|3----x--x----3----x---x----3---x----|
A|------------------------------------|------------------------------------|
E|------------------------------------|------------------------------------|
 |                                                                         |
G|------------------------------------|------------------------------------|
D|------------------------------------|------------------------------------|
A|1------------1--------x----1--------|1------------1--------x----1----1---|
E|------------------------------------|------------------------------------|
      is    there    a    hint   of a  vulnerable    you    there    a 


  Eb                                   Ebm
e|x----x--x----x----x---x----x---x----|x----x--x----x----x---x----x---x----|
B|4----x--x----4----x---x----4---x----|4----x--x----4----x---x----4---x----|
G|3----x--x----3----x---x----3---x----|3----x--x----3----x---x----3---x----|
D|5----x--x----5----x---x----5---x----|4----x--x----4----x---x----4---x----|
A|------------------------------------|------------------------------------|
E|------------------------------------|------------------------------------|
 |                                                                         |
G|------------------------------------|------------------------------------|
D|------------------------------------|------------------------------------|
A|1------------1-------------1----1---|1------------1-----------------0----|
E|------------------------------------|----------------------4-------------|
   drift  in  your  eyes


  Bbm                                  Fm
e|1----x--x----1----x---x----1---x----|1----x--x----1----x---x----1---x----|
B|2----x--x----2----x---x----2---x----|1----x--x----1----x---x----1---x----|
G|3----x--x----3----x---x----3---x----|1----x--x----1----x---x----1---x----|
D|3----x--x----3----x---x----3---x----|3----x--x----3----x---x----3---x----|
A|------------------------------------|------------------------------------|
E|------------------------------------|------------------------------------|
 |                                                                         |
 |                                                                         |
G|------------------------------------|------------------------------------|
D|------------------------------------|------------------------------------|
A|1------------1--------x----1--------|------------------------------------|
E|------------------------------------|4-------------4-------1----4--------|
    could    it    be    that    the    sharp    and    the   blunt    side


  Eb                                   Ebm
e|x----x--x----x----x---x----x---x----|x----x--x----x----x---x----x---x----|
B|4----x--x----4----x---x----4---x----|4----x--x----4----x---x----4---x----|
G|3----x--x----3----x---x----3---x----|3----x--x----3----x---x----3---x----|
D|5----x--x----5----x---x----5---x----|4----x--x----4----x---x----4---x----|
A|------------------------------------|------------------------------------|
E|------------------------------------|------------------------------------|
 |                                                                         |
G|------------------------------------|------------------------------------|
D|1------------1--------x----1--------|1------------1--------x----1--h--3--|
A|------------------------------------|------------------------------------|
E|------------------------------------|------------------------------------|
   have  shifted  this  time
  


  CHORUS

  Bbm                                  Ab
e|6----x--x----6----x---x----6---x----|4----x--x----4----x---x----4---x----|
B|6----x--x----6----x---x----6---x----|4----x--x----4----x---x----4---x----|
G|6----x--x----6----x---x----6---x----|5----x--x----5----x---x----5---x----|
D|8----x--x----8----x---x----8---x----|6----x--x----6----x---x----6---x----|
A|8----x--x----8----x---x----8---x----|6----x--x----6----x---x----6---x----|
E|6----x--x----6----x---x----6---x----|4----x--x----4----x---x----4---x----|
 |                                                                         |
G|------------------------------------|------------------------------------|
D|------------------------------------|------------------------------------|
A|1------------1-------------1--------|------------------------------------|
E|----------------------1-------------|4-------------4-------1----4--------|
      I    wanted    you      you   wanted    me   but   he   was   there


  Ebm7                                 Ebm7
e|6----x--x----6----x---x----6---x----|6----x--x----6----x---x----6---x----|
B|7----x--x----7----x---x----7---x----|7----x--x----7----x---x----7---x----|
G|6----x--x----6----x---x----6---x----|6----x--x----6----x---x----6---x----|
D|8----x--x----8----x---x----8---x----|8----x--x----8----x---x----8---x----|
A|6----x--x----6----x---x----6---x----|6----x--x----6----x---x----6---x----|
E|------------------------------------|------------------------------------|
 |                                                                         |
G|------------------------------------|------------------------------------|
D|1------------1-------------1----1---|1------------1----------------------|
A|------------------------------------|------------------------------------|
E|------------------------------------|----------------------1----4--------|


  Bbm                                  Ab
e|6----x--x----6----x---x----6---x----|4----x--x----4----x---x----4---x----|
B|6----x--x----6----x---x----6---x----|4----x--x----4----x---x----4---x----|
G|6----x--x----6----x---x----6---x----|5----x--x----5----x---x----5---x----|
D|8----x--x----8----x---x----8---x----|6----x--x----6----x---x----6---x----|
A|8----x--x----8----x---x----8---x----|6----x--x----6----x---x----6---x----|
E|6----x--x----6----x---x----6---x----|4----x--x----4----x---x----4---x----|
 |                                                                         |
G|------------------------------------|------------------------------------|
D|------------------------------------|------------------------------------|
A|1------------1-------------1----0---|------------------------------------|
E|----------------------1-------------|4-------------4-------1----4--------|
   now  let it be     let it be    let it be    oh baby    let it bare	


  Eb                                   Ebm
e|6----x--x----6----x---x----6---x----|11---x--x----11----x---x----x----x--|
B|8----x--x----8----x---x----8---x----|11---x--x----11----x---x----x----x--|
G|8----x--x----8----x---x----8---x----|11---x--x----11----x---x----x----x--|
D|8----x--x----8----x---x----8---x----|13---x--x----13----x---x----x----x--|
A|6----x--x----6----x---x----6---x----|13---x--x----13----x---x----x----x--|
E|------------------------------------|11---x--x----11----x---x----x----x--|
 |                                                                         |
G|------------------------------------|------------------------------------|
D|1------------1--------x----1--------|4--------4--------4----6------------|
A|------------------------------------|------------------------------------|
E|------------------------------------|------------------------------------|


OUTRO


e|6----x--x----6----x---x----6---x----|6----x--x----6----x---x----6---8----|
B|6----x--x----6----x---x----6---x----|6----x--x----6----x---x----6---x----|
G|6----x--x----6----x---x----6---x----|6----x--x----6----x---x----6---x----|
D|------------------------------------|------------------------------------|
A|------------------------------------|------------------------------------|
E|------------------------------------|------------------------------------|
 |                                                                         |
G|------------------------------------|6------------6--------x----6----6---|
D|8------------8--------x----8----8---|------------------------------------|
A|------------------------------------|------------------------------------|
E|------------------------------------|------------------------------------|

e|6----x--x----6----x---x----6---x----|6----x--x----6----x---x----6---8----|
B|6----x--x----6----x---x----6---x----|6----x--x----6----x---x----6---x----|
G|6----x--x----6----x---x----6---x----|6----x--x----6----x---x----6---x----|
D|------------------------------------|------------------------------------|
A|------------------------------------|------------------------------------|
E|------------------------------------|------------------------------------|
 |                                                                         |
G|8------------8--------x----8----8---|8------------8--------x----8----8---|
D|------------------------------------|------------------------------------|
A|------------------------------------|------------------------------------|
E|------------------------------------|------------------------------------|

e|6----x--x----6----x---x----6---x----|6----x--x----6----x---x----6---8----|
B|6----x--x----6----x---x----6---x----|6----x--x----6----x---x----6---x----|
G|6----x--x----6----x---x----6---x----|6----x--x----6----x---x----6---x----|
D|------------------------------------|------------------------------------|
A|------------------------------------|------------------------------------|
E|------------------------------------|------------------------------------|
 |                                                                         |
G|------------------------------------|------------------------------------|
D|8------------8--------x----7----8---|6------------6--------x----6----6---|
A|------------------------------------|------------------------------------|
E|------------------------------------|------------------------------------|

e|6----x--x----6----x---x----6---x----|6----x--x----6----x---x----0---0----|
B|6----x--x----6----x---x----6---x----|6----x--x----6----x---x----5---5----|
G|6----x--x----6----x---x----6---x----|6----x--x----6----x---x----4---4----|
D|------------------------------------|---------------------------5---5----|
A|------------------------------------|------------------------------------|
E|------------------------------------|------------------------------------|
 |                                                                         |
G|------------------------------------|3-----------------------------------|
D|1------------1--------x----1----1---|----1--------1----4--------3--------|
A|------------------------------------|------------------------------------|
E|------------------------------------|------------------------------------|


  Bbm                                  Fm
e|1----x--x----1----x---x----1---x----|1----x--x----1----x---x----1---x----|
B|2----x--x----2----x---x----2---x----|1----x--x----1----x---x----1---x----|
G|3----x--x----3----x---x----3---x----|1----x--x----1----x---x----1---x----|
D|3----x--x----3----x---x----3---x----|3----x--x----3----x---x----3---x----|
A|------------------------------------|------------------------------------|
E|------------------------------------|------------------------------------|
 |                                                                         |
G|------------------------------------|------------------------------------|
D|------------------------------------|------------------------------------|
A|1------------1-------------1--------|------------------------------------|
E|----------------------1-------------|4-------------4-------1----4--------|

  Eb                                   Ebm
e|x----x--x----x----x---x----x---x----|x----x--x----x----x---x----x---x----|
B|4----x--x----4----x---x----4---x----|4----x--x----4----x---x----4---x----|
G|3----x--x----3----x---x----3---x----|3----x--x----3----x---x----3---x----|
D|5----x--x----5----x---x----5---x----|4----x--x----4----x---x----4---x----|
A|------------------------------------|------------------------------------|
E|------------------------------------|------------------------------------|
 |                                                                         |
G|------------------------------------|------------------------------------|
D|1------------1-------------1----1---|1------------1----------------------|
A|------------------------------------|------------------------------------|
E|------------------------------------|----------------------1----4--------|

  Bbm                                  Fm
e|1----x--x----1----x---x----1---x----|1----x--x----1----x---x----x--x--x--|
B|2----x--x----2----x---x----2---x----|1----x--x----1----x---x----x--4--4--|
G|3----x--x----3----x---x----3---x----|1----x--x----1----x---x----x--3--3--|
D|3----x--x----3----x---x----3---x----|3----x--x----3----x---x----x--5--5--|
A|------------------------------------|------------------------------------|
E|------------------------------------|------------------------------------|
 |                                                                         |
G|------------------------------------|------------------------------------|
D|------------------------------------|------------------------------------|
A|1------------1-------------1--------|------------------------------------|
E|----------------------1-------------|4-------------4-------1----4--------|

  Cm7                                  Ebm7
e|x-----------x--x--x-----------x--x--|x-----------x-----x---x---x---6--6--|
B|4-----------4--4--4-----------7--7--|7-----------7-----7---7---7---6--6--|
G|3-----------3--3--3-----------6--6--|6-----------6-----6---6---6---6--6--|
D|5-----------5--5--5-----------8--8--|8-----------8-----8---8---8---8--8--|
A|------------------------------------|------------------------------------|
E|------------------------------------|------------------------------------|
 |                                                                         |
G|------------------------------------|------------------------------------|
D|------------------------------------|------------------6---6---6---6-----|
A|3---3---3---3-----6---6---6---6-----|8---8---8---8-----------------------|
E|------------------------------------|------------------------------------|

  Ebm
e|6-----------------------------------|-----------------------------------||
B|6-----------------------------------|-----------------------------------||
G|6-----------------------------------|-----------------------------------||
D|8-----------------------------------|-----------------------------------||
A|------------------------------------|-----------------------------------||
E|------------------------------------|-----------------------------------||
 |                                                                        ||
G|------------------------------------|-----------------------------------||
D|8-----------------------------------|-----------------------------------||
A|------------------------------------|-----------------------------------||
E|------------------------------------|-----------------------------------||



| /  slide up
| \  slide down
| h  hammer-on
| p  pull-off
| ~  vibrato
| +  harmonic
| x  Mute note


Tap to rate this tab
 
# A B C D E F G H I J K L M N O P Q R S T U V W X Y Z