Song name
# A B C D E F G H I J K L M N O P Q R S T U V W X Y Z

The Xx - Try tab

This is my first tab, and it is of the song "Try" by The xx! Enjoy!
If it helps in any way, the BPM of "Try" is 96 beats per minute.


INTRO MELODY (0:00 - 0:11):

      (Part 1)
e|-7---------------|
B|---7-8-7-5-7-8-7-|
G|-----------------| (2x)
D|-----------------|
A|-----------------|
E|-----------------|

      (Part 2)
e|-5---------------|
B|---7-8-7-5-7-8-7-|
G|-----------------| (2x)
D|-----------------|
A|-----------------|
E|-----------------|


VERSE (0:11 - 0:30):

e|---------|--------|---------|--------|---------|--------|------------|
B|---------|--------|---------|--------|---------|--------|------------|
G|-7--9--11|--------|-7--9--11|--------|-9--11--9|--------|-11--12--11-|
D|---------|--------|---------|--------|---------|--------|------------|
A|---------|--------|---------|--------|---------|--------|------------|
E|---------|--------|---------|--------|---------|--------|------------|


INTRO MELODY (0:30 - 0:41):

      (Part 1)
e|-7---------------|
B|---7-8-7-5-7-8-7-|
G|-----------------| (4x)
D|-----------------|
A|-----------------|
E|-----------------|


CHORUS (0:41 - 1:21):
(The Chorus has multiple things going on at once.
The intro melody is being played at the same time in the background.
Listen to the original song to find out where things go.
It is too hard to explain through a tab, but it is easy to hear.
I will just inform you of the parts that are in the chorus.
You will have to find out where they go on your own... sorry, pal)


(This part right below, I'm not 100% sure about)
e|---------|---------|----------|----------|
B|---------|---------|----------|----------|
G|-7-------|-7-------|-6--------|-11-------| (2x)
D|-0-------|-9-------|-7--------|-12-------|
A|---------|---------|----------|----------|
E|---------|---------|----------|----------|

              (Tremolo Picking)
e|---------|---------|-----------|----------|
B|---------|---------|-----------|----------|
G|-7-----9-|-6-------|-12-----14-|-11-------| (Play On second time of the above)
D|---------|---------|-----------|----------|
A|---------|---------|-----------|----------|
E|---------|---------|-----------|----------|

(The section below is going to be played at the same time as the
section above. Figure out where they go by listening to the song)

      (Part 1)
e|-7---------------|
B|---7-8-7-5-7-8-7-|
G|-----------------| (4x)
D|-----------------|
A|-----------------|
E|-----------------|

      (Part 2)
e|-5---------------|
B|---7-8-7-5-7-8-7-|
G|-----------------| (4x)
D|-----------------|
A|-----------------|
E|-----------------|

      (Part 1)
e|-7---------------|
B|---7-8-7-5-7-8-7-|
G|-----------------| (4x)
D|-----------------|
A|-----------------|
E|-----------------|

      (Part 2)
e|-5---------------|
B|---7-8-7-5-7-8-7-|
G|-----------------| (4x)
D|-----------------|
A|-----------------|
E|-----------------|


VERSE (1:21 - 2:00):

e|---------|--------|---------|--------|---------|--------|------------|
B|---------|--------|---------|--------|---------|--------|------------|
G|-7--9--11|--------|-7--9--11|--------|-9--11--9|--------|-11--12--11-| (2x)
D|---------|--------|---------|--------|---------|--------|------------|
A|---------|--------|---------|--------|---------|--------|------------|
E|---------|--------|---------|--------|---------|--------|------------|


CHORUS (2:00 - 2:20):

              (Palm Muting)
e|------------------------------------------|
B|------------------------------------------|
G|-7--7-9--9-11--11-6----7--7-9--9-12--12-6-|
D|------------------------------------------|
A|------------------------------------------|
E|------------------------------------------|

           (Still Palm Muting)
e|--------------------------------------|
B|--------------------------------------|
G|-12--12-11--11-9--9-7----6--6-7-12-11-|
D|--------------------------------------|
A|--------------------------------------|
E|--------------------------------------|


OUTRO (2:20 - 3:15):

(This part right below, I'm not 100% sure about)
e|---------|---------|----------|----------|
B|---------|---------|----------|----------|
G|-7-------|-7-------|-6--------|-11-------| (2x)
D|-0-------|-9-------|-7--------|-12-------|
A|---------|---------|----------|----------|
E|---------|---------|----------|----------|

              (Tremolo Picking)
e|---------|---------|-----------|----------|
B|---------|---------|-----------|----------|
G|-7-----9-|-6-------|-12-----14-|-11-------| [(2x) Same time as part above]
D|---------|---------|-----------|----------|
A|---------|---------|-----------|----------|
E|---------|---------|-----------|----------|

(The section below starts on the second time of the section above)

      (Part 1)
e|-7---------------|
B|---7-8-7-5-7-8-7-|
G|-----------------| (4x)
D|-----------------|
A|-----------------|
E|-----------------|

      (Part 2)
e|-5---------------|
B|---7-8-7-5-7-8-7-|
G|-----------------| (4x)
D|-----------------|
A|-----------------|
E|-----------------|

      (Part 1)
e|-7---------------|
B|---7-8-7-5-7-8-7-|
G|-----------------| (2x)
D|-----------------|
A|-----------------|
E|-----------------|

      (Part 2)
e|-5---------------5---------|
B|---7-8-7-5-7-8-7---7-8-7-5-|
G|---------------------------|
D|---------------------------|
A|---------------------------|
E|---------------------------|



Again, just listen to the original and it will be easy to figure
out where everything goes!
I hope this tab was helpful. I tried my best! :D
Tap to rate this tab
# A B C D E F G H I J K L M N O P Q R S T U V W X Y Z