Song name
# A B C D E F G H I J K L M N O P Q R S T U V W X Y Z

Theory Of A Deadman - Bitch Came Back tab

First tab guys

e|---------------|      |-----------------------------------------------|
B|---------------|      |-----------------------------------------------|
G|11---9---7---6-|      |--4~~------------------------------------------|
D|11---9---7---6-|(x3)  |--4~~------------------------------------------|
A|-9---7---5---4-|      |--2~~------------------------------------------|
E|---------------|      |-----------------------------------------------|

e|----------------------------------------------------------------------------|
B|----------------------------------------------------------------------------|
G|----------------------------------------------------------------------------|
D|16-16-16-16--14-14-14-14--12-12-12-12--11-11-11-11--9-9-9-9-9-9-9-9-9-9-9-9-|
A|16-16-16-16--14-14-14-14--12-12-12-12--11-11-11-11--9-9-9-9-9-9-9-9-9-9-9-9-|
E|14-14-14-14--12-12-12-12--10-10-10-10---9--9--9--9--7-7-7-7-7-7-7-7-7-7-7-7-|

e|--------------|
B|--------------|
G|--------------|
D|11-11-11-11---|
A|11-11-11-11---|
E|-9--9--9--9---|

e|---------------------------------------|  ---------------------------------|
B|---------------------------------------|  ---------------------------------|
G|11-11-11-11--9-9-9-9--7-7-7-7--6-6-6-6-|  4-4-4-4-4-4-4-4-4-4-4-4--6-6-6-6-|
D|11-11-11-11--9-9-9-9--7-7-7-7--6-6-6-6-x3 4-4-4-4-4-4-4-4-4-4-4-4--6-6-6-6-|
A|-9--9--9--9--7-7-7-7--5-5-5-5--4-4-4-4-|  2-2-2-2-2-2-2-2-2-2-2-2--4-4-4-4-|
E|---------------------------------------|  ---------------------------------|

e|---------------------------------------|  ---------------------------------|
B|---------------------------------------|  ---------------------------------|
G|11-11-11-11--9-9-9-9--7-7-7-7--6-6-6-6-|  4-4-4-4-4-4-4-4-4-4-4-4--6-6-6-6-|
D|11-11-11-11--9-9-9-9--7-7-7-7--6-6-6-6-x3 4-4-4-4-4-4-4-4-4-4-4-4--6-6-6-6-|
A|-9--9--9--9--7-7-7-7--5-5-5-5--4-4-4-4-|  2-2-2-2-2-2-2-2-2-2-2-2--4-4-4-4-|
E|---------------------------------------|  ---------------------------------|

e|---------------------------------------------------|
B|---------------------------------------------------|
G|---------------------------------------------------|
D|16-16-16-16--14-14-14-14--12-12-12-12--11-11-11-11-|(x3)
A|16-16-16-16--14-14-14-14--12-12-12-12--11-11-11-11-|
E|14-14-14-14--12-12-12-12--10-10-10-10---9--9--9--9-|

e|--------------------------------------|
B|--------------------------------------|
G|--------------------------------------|
D|-9-9-9-9-9-9-9-9-9-9-9-9--11-11-11-11-|
A|-9-9-9-9-9-9-9-9-9-9-9-9--11-11-11-11-|
E|-7-7-7-7-7-7-7-7-7-7-7-7---9--9--9--9-|


e|-----------------------|
B|-----------------------|
G|-----------------------|
D|-----------------------|
A|-----------------------|
E|2-2-2-0-2-5-2-0-2-5-2-0|

e|---------------------------------------|  ---------------------------------|
B|---------------------------------------|  ---------------------------------|
G|11-11-11-11--9-9-9-9--7-7-7-7--6-6-6-6-|  4-4-4-4-4-4-4-4-4-4-4-4--6-6-6-6-|
D|11-11-11-11--9-9-9-9--7-7-7-7--6-6-6-6-x3 4-4-4-4-4-4-4-4-4-4-4-4--6-6-6-6-|
A|-9--9--9--9--7-7-7-7--5-5-5-5--4-4-4-4-|  2-2-2-2-2-2-2-2-2-2-2-2--4-4-4-4-|
E|---------------------------------------|  ---------------------------------|

e|---------------------------------------|  ---------------------------------|
B|---------------------------------------|  ---------------------------------|
G|11-11-11-11--9-9-9-9--7-7-7-7--6-6-6-6-|  4-4-4-4-4-4-4-4-4-4-4-4--6-6-6-6-|
D|11-11-11-11--9-9-9-9--7-7-7-7--6-6-6-6-x3 4-4-4-4-4-4-4-4-4-4-4-4--6-6-6-6-|
A|-9--9--9--9--7-7-7-7--5-5-5-5--4-4-4-4-|  2-2-2-2-2-2-2-2-2-2-2-2--4-4-4-4-|
E|---------------------------------------|  ---------------------------------|

e|---------------------------------------------------|
B|---------------------------------------------------|
G|---------------------------------------------------|
D|16-16-16-16--14-14-14-14--12-12-12-12--11-11-11-11-|(x3)
A|16-16-16-16--14-14-14-14--12-12-12-12--11-11-11-11-|
E|14-14-14-14--12-12-12-12--10-10-10-10---9--9--9--9-|

e|-------------------------------------|
B|-------------------------------------|
G|-------------------------------------|
D|9-9-9-9-9-9-9-9-9-9-9-9--11-11-11-11-|
A|9-9-9-9-9-9-9-9-9-9-9-9--11-11-11-11-|
E|7-7-7-7-7-7-7-7-7-7-7-7---9--9--9--9-|

e|------------------------------------------------|
B|------------------------------------------------|
G|------------------------------------------------|
D|12-12-12-12-12-12-12-12--11-11-11-11-11-11-11-11|
A|12-12-12-12-12-12-12-12--11-11-11-11-11-11-11-11|
E|10-10-10-10-10-10-10-10---9--9--9--9--9--9--9--9|

e|--------------------------------|
B|--------------------------------|
G|--------------------------------|
D|9-9-9-9-9-9-9-9-9-9-9-9--7-7-7-7|
A|9-9-9-9-9-9-9-9-9-9-9-9--7-7-7-7|
E|7-7-7-7-7-7-7-7-7-7-7-7--5-5-5-5|

e|------------------------------------------------|
B|------------------------------------------------|
G|------------------------------------------------|
D|12-12-12-12-12-12-12-12--11-11-11-11-11-11-11-11|
A|12-12-12-12-12-12-12-12--11-11-11-11-11-11-11-11|
E|10-10-10-10-10-10-10-10---9--9--9--9--9--9--9--9|

e|-------------------------------|
B|-------------------------------|
G|-------------------------------|
D|-4-4-4-2-4-7-4-2-4-7-4-2-2-2-2-|(x5)
A|-4-4-4-2-4-7-4-2-4-7-4-2-2-2-2-|
E|-2-2-2-0-2-5-2-0-2-5-2-0-0-0-0-|

e|---------|
B|---------|
G|---------|
D|11-------|
A|11-(x32)-|
E|-9-------|

e|---------------|      |-----------------------------------------------|
B|---------------|      |-----------------------------------------------|
G|11---9---7---6-|      |--4-4-4-4-4-4-4-4-4-4-4-4--6-6-6-6-------------|
D|11---9---7---6-|(x3)  |--4-4-4-4-4-4-4-4-4-4-4-4--6-6-6-6-------------|
A|-9---7---5---4-|      |--2-2-2-2-2-2-2-2-2-2-2-2--4-4-4-4-------------|
E|---------------|      |-----------------------------------------------|

e|---------------------------------------------------|
B|---------------------------------------------------|
G|---------------------------------------------------|
D|16-16-16-16--14-14-14-14--12-12-12-12--11-11-11-11-|(x3)
A|16-16-16-16--14-14-14-14--12-12-12-12--11-11-11-11-|
E|14-14-14-14--12-12-12-12--10-10-10-10---9--9--9--9-|

e|-------------------------------------|
B|-------------------------------------|
G|-------------------------------------|
D|9-9-9-9-9-9-9-9-9-9-9-9--11-11-11-11-|
A|9-9-9-9-9-9-9-9-9-9-9-9--11-11-11-11-|
E|7-7-7-7-7-7-7-7-7-7-7-7---9--9--9--9-|

e|---------------------------------------------------|
B|---------------------------------------------------|
G|---------------------------------------------------|
D|16-16-16-16--14-14-14-14--12-12-12-12--11-11-11-11-|(x3)
A|16-16-16-16--14-14-14-14--12-12-12-12--11-11-11-11-|
E|14-14-14-14--12-12-12-12--10-10-10-10---9--9--9--9-|

e|-------------------------------------|
B|-------------------------------------|
G|-------------------------------------|
D|9-9-9-9-9-9-9-9-9-9-9-9--11-11-11-11-|
A|9-9-9-9-9-9-9-9-9-9-9-9--11-11-11-11-|
E|7-7-7-7-7-7-7-7-7-7-7-7---9--9--9--9-|

e|-------------------------------|
B|-------------------------------|
G|-------------------------------|
D|-4-4-4-2-4-7-4-2-4-7-4-2-2-2-2-|(x2)
A|-4-4-4-2-4-7-4-2-4-7-4-2-2-2-2-|
E|-2-2-2-0-2-5-2-0-2-5-2-0-0-0-0-|

e|---------------|
B|---------------|
G|11---9---7---6-|
D|11---9---7---6-|(fade to end)
A|-9---7---5---4-|
E|---------------|






Please Rate Guys







Tabbed by Wolf
Tap to rate this tab
# A B C D E F G H I J K L M N O P Q R S T U V W X Y Z