Song name
# A B C D E F G H I J K L M N O P Q R S T U V W X Y Z

Thin Lizzy - Johnny tab

Artist: Thin Lizzy
Song:  Johnny
Album:  Johnny the Fox

Tuning:  Standard
Key: G# minor

Intro:(2x)
E|---------------------------------------------------|
H|---------------------------------------------------|
B|------------------------------------------9-9-8-8--|
D|------------------------------------------9-9-8-8--|
A|--------------------------4--6-4-6---6-6--7-7-6-6--|
E|-4-2-4---4-6--7-6-7---7----------------------------|

E|--------------------------------------------------------|
B|--------------------------------------------------------|
G|--------------------------------------------------------|
D|--------------------------------------------------------|
A|--------------------------4--6-4-6---6-6---7-6-4--------|
E|-4-2-4---4-6--7-6-7---7-------------------------7--6--4-|

Verse:(2x)
E|--------------------------------------------------|
B|--------------------------------------------------|
G|------4----6----4-4------------4----6-------------|
D|-6----4----6----4-4--4-4--6----4----6----2-2--4-4-|
A|-6----2----4----2-2--4-4--6----2----4----2-2--4-4-|
E|-4-------------------2-2--4--------------0-0--2-2-|

Chorus:(2x)
E|------------|
B|------------|
G|-----11--8--|
D|-6---11--8--|
A|-6---9---6--|
E|-4----------|

Verse
Chorus
Solo 1 (rhythm is same as intro, I just improvise using G# minor pentatonic)

G# minor pentatonic:

E|-------------------------------4--7-|
B|-------------------------4--7-------|
G|-------------------4--6-------------|
D|-------------4--6-------------------|
A|-------4--6-------------------------|
E|-4--7-------------------------------|

or

E|-----------------------------------------16--19-|
B|---------------------------------16--19---------|
G|-------------------------16--18-----------------|
D|-----------------16--18-------------------------|
A|---------16--18---------------------------------|
E|-16--19-----------------------------------------|

Verse
Chorus
Verse
Chorus
Solo 2 (see solo 1)

Sorry about not having the note-for-note solo but sometimes it is just better to improvise.



Tap to rate this tab
 
# A B C D E F G H I J K L M N O P Q R S T U V W X Y Z