Song name
# A B C D E F G H I J K L M N O P Q R S T U V W X Y Z

Third Eye Blind - Never Let You Go tab

Chorus:
e|----------------------------------------|
B|----------------------------------------|
G|----------------------------------------|
D|-----9----------9-----------------------|
A|-----7--9--7-7--7--9--7-7-7-------------|
E|--------7--5-5-----7--5-5-5-------------|

Riff:
e|----------------------------------------|
B|--7-9-7-------7-9-7---------------------|
G|--------9-6----------9-6-5--------------|
D|----------------------------------------|
A|----------------------------------------|
E|----------------------------------------|

Riff #2:
e|----------------------------------------|
B|----------------------------------------|
D|----------------------------------------|
G|---9--------------------9---------------|
A|---7-9-9---9---9--9-9--7--9-9--7---7-9-9|
E|-----7-7--11--11--7-7-----7-7--5---5-7-7|

Solo: (2xTimes)
     A          (Eleven) 
e|---------|-------------------------------|
B|---2-----|---1111111111/13---------------|
G|-----2---|---1111111111/13---------------|
D|-------2-|-------------------------------|
A|--0------|-------------------------------|
E|---------|-------------------------------|

Pretty easy song, but fun to listen to... Good Luck!!!
Try out METALLICA's Tabs, THEY'RE AWESOME!!!
Tap to rate this tab
# A B C D E F G H I J K L M N O P Q R S T U V W X Y Z