Guitaretab - guitar tabs
Song name
# A B C D E F G H I J K L M N O P Q R S T U V W X Y Z

Thom Yorke - Harrowdown Hill tab

this is a really easy song. listen to it to get the timing right though

enjoy!!
Lort


E ------------------------|
B ------------------------|
G --0-0---0-0-------------|
D -------------0----------|       Repeat this 24x
A ------------------------|
E -----------9------3-----|

Then
[ Tab from: http://www.guitaretab.com/t/thom-yorke/76045.html ]
E ------------------------|
B --0-0---0-0-------------|
G -------------0----------|       Repeat 4x
D ------------------------|
A -----------9------2-----|
E ------------------------|


E ------------------------|
B ------------------------|
G --0-0---0-0--------0-0--|       repeat 3x
D ------------------------|
A ------------9-9-9-------|
E ------------------------|

then repeat the first part 10x
then the scond part 2x
and back to the first aprt 4x

The piano comes in and you don't play until 4:14, then you play the
first part again 6x
Related for Harrowdown Hill tab