Song name
# A B C D E F G H I J K L M N O P Q R S T U V W X Y Z

Thornley - Make Believe tab

Make Believe
Thornley

*sweet_inc*

tuning - 1/2 step down, drop D

the song was recorded using a Gibson EDS-1275 doubleneck guitar
for the purposes of this song...the tabs have been written as follows

1a - 12 string guitar with capo on 5th fret - notation relative to capo (clean)
1b - 12 string riff written to be played on 6 string without capo (clean)
other riffs as played on 6 string, no capo (distorted)


main riff 1a
e|-----------------------------------------------------------|
B|-----0-------0-------0-------0-------0-------0-------0-----|
G|-------0-------0-------0-------0-------0-------0-------0---|
D|---5-------5-------5-------5-------5-------5-------5-------|
A|-7-------6-------5-------4-------3-------3-------3---------|
D|-----------------------------------------------------------|

pre-chorus 1a
e|------------------------------------|
B|------------------------------------|
G|--7-7-7-5-5-5-4-4-4-2-2-2-0-0-0-----|
D|--5-5-5-5-5-5-5-5-5-2-2-2-0-0-0-----|
A|------------------------------------|
D|------------------------------------|

main riff 1b
e|------0-------0-------0-------0-------0-------0---------|
B|--------------------------------------------------------|
G|----5---5---5---5---5---5---5---5---5---5---5---5---5---|
D|--7-------6-------5-------4-------3-------3-------3-----|
A|--------------------------------------------------------|
D|--------------------------------------------------------|

pre-chorus 1b
e|--------------------------------------------|
B|--------------------------------------------|
G|-12-12-12-10-10-10--9--9--9-7-7-7-5-5-5-----|
D|-10-10-10-10-10-10-10-10-10-7-7-7-5-5-5-----|
A|--------------------------------------------|
D|--------------------------------------------|

chorus
e|----------------------------|
B|----------------------------|
G|-5---------5----------------|
D|-5-5-7-5-3-5-5-7-5-3--------|
A|-3-5-7-5-3-3-5-7-5-3--------|
D|---5-7-5-3---5-7-5-3--------|

2nd chorus
e|--------------------------------|
B|--------------------------------|
G|-5---------5--------------------|
D|-5-5-7-5-3-5-5-7-5-3--7-5-3-----|
A|-3-5-7-5-3-3-5-7-5-3--7-5-3-----|
D|---5-7-5-3---5-7-5-3--7-5-3-----|

interlude pt1
e|----------------------|
B|----------------------|
G|------5-3-------------|
D|--6-3-5-3-6-8-5-------|
A|--6-3-3-1-6-8-5-------|
D|--6-3-----6-8-5-------|

interlude pt2 1a
e|-------------------------------0---0---0------|
B|-------------------------------1-0-1-0-1------|
G|-7-7-7-6-6-6-5-5-5-4-4-4-2-2-2-0-0-0-0-0------|
D|-------------------------------2-0-2-0-2------|
A|-------------------------------3-3-3-3-3------|
D|----------------------------------------------|

interlude pt2 1b
e|----------------------------------------1---1---1----|
B|----------------------------------------1---1---1----|
G|-12-12-12-11-11-11-10-10-10-9-9-9-7-7-7-2-0-2-0-2----|
D|----------------------------------------3-0-3-0-3----|
A|----------------------------------------3-0-3-0-3----|
D|-----------------------------------------------------|

final chorus
e|-------------------------------|
B|-------------------------------|
G|-5---------5-4-----------------|
D|-5-5-7-5-3-5-2-7-5-3--7-5-3----|
A|-3-5-7-5-3-3-2-7-5-3--7-5-3----|
D|---5-7-5-3---2-7-5-3--7-5-3----|
Tap to rate this tab
 
# A B C D E F G H I J K L M N O P Q R S T U V W X Y Z