Thousand Foot Krutch - Home tab

Tabbed by: Michael Smith
Email:matthewwestfan@live.com

Tuning:Drop D

Intro/Verse:
e|--------------------------------------------------------------------------|
B|--------------------------------------------------------------------------|
G|--------------------------------------------------------------------------|
D|-----0-------0---------0-------0---------0-------0----------0-------0-----|
A|---7---7---7---7-----3---3---3---0-----3---3---3---3------5---5---5---5---|
E|-7-------7---------3-------3---------2-------2----------5-------5---------|

Pre-Chorus:
e|--------------------------------------------------------------------------|
B|-----3--------------------------------------------------------------------|
G|----(5)--------5----------------3-----------------------------------------|
D|--5------2----2----5----5--(5)-5------2----5----7----5--------------------|
A|-3------0----0----3----5----3--------0----3----7----5---------------------|
E|-------0--------3----5--------------0----3----7----5----------------------|

Chorus:
e|--------------------------------------------------------------------------|
B|--------------------------------------------------------------------------|
G|--------------------------------------------------------------------------|
D|-5***-5***-7***-3***-5***-5***--0***-7***-3***-5***-----------------------|
A|-3***-5***-7***-3***-3***-5***--0***-7***-3***-5***-----------------------|
E|-5***-5***-7***-3***-5***-5***--0***-7***-3***-5***-----------------------|

Fill: Gtr. 1(4 Chorus) [Second time on fill put octave effect on]
e|-------------------------12-12--------------------------------------------|
B|-12--12--12--12-13-12--12-----13-12-13------------------------------------|
G|---12--12--12--------12---------------------------------------------------|
D|--------------------------------------------------------------------------|
A|--------------------------------------------------------------------------|
E|--------------------------------------------------------------------------|

Fill: Gtr. 2 (4 Chorus) [Let Ring]
e|--------------------------------------------------------------------------|
B|-3------------------------------------------------------------------------|
G|-2------------------------------------------------------------------------|
D|--------------------------------------------------------------------------|
A|--------------------------------------------------------------------------|
E|--------------------------------------------------------------------------|

Ending Chord: [Let Ring] (Index Barre at 3rd Fret)
e|--------------------------------------------------------------------------|
B|-3------------------------------------------------------------------------|
G|-5------------------------------------------------------------------------|
D|-5------------------------------------------------------------------------|
A|-3------------------------------------------------------------------------|
E|-5------------------------------------------------------------------------|
Tap to rate this tab
 
# A B C D E F G H I J K L M N O P Q R S T U V W X Y Z