Song name
# A B C D E F G H I J K L M N O P Q R S T U V W X Y Z

Three Days Grace - Medley tab

Three Days Grace/Nickelback - Never Too Late/Savin Me (medley)
Tabbed and arranged by: Alejandro Manzano of Boyce Avenue

www.myspace.com/boyceavenue

video of me playing/singing it:
http://www.youtube.com/watch?v=API2AbEiSpY

Tuning: C  G  C  F  A# D#

 x  = mute
< > = harmonics

Intro/Verse 1 and 2:
---------------------------------------------------------|
---------------------------------------------------------|
---------------------------------------------------------|
---10----10-8-7-0--10----10-8-7-0--10---10-8-7-0--10--10-|
--8--8--0---------8--8--0---------8--8-0---------7--7-10-|
-8----0----------8----0----------8----0---------7-----10-|

Chorus 1 and 2:
-0--0--0--0--0--0--0--0--0--0--0--0--0--0--0--0-|
-0--0--0--0--0--0--0--0--0--0--0--0--0--0--0--0-|
-2--3--0--0--2--3--0--0--2--3--0--0--3--2--0--0-|
-0--3--2--5--0--3--2--5--0--3--2--5--3--0--2--5-|
-0--1--0--3--0--1--0--3--0--1--0--3--1--0--0--3-|
-0-----------0-----------0--------------0-------|

Savin Me Intro:
-------------------------------------|
-------------------------------------|
-----0---------0-------0---------0---|
---7---------7---7---7---7-----3---0-|
-------------------------------------|
-8-----0-3-3-------5-------0-0-------|

-------------------------------------|
-------------------------------------|
-----0---------0-------0---------0---|
---7---------7---7---7---7-----7---0-|
-------------------------------------|
-8-----0-3-3-------5-------5-5-------|

-<12>-
-<12>-
-<12>-
------|
------|
------|

Chorus:
-0---0---0---0--0--0---0---0-|
-0---0---0---0--0--0---0---0-|
-3---2---0---2--2--3---2---0-|
-3---3---0---0--x--3---3---0-|
-1---3---5---0--3--1---3---5-|
---------5---0--3----------5-|

Outro:
-----------------------------------------2-|
---0----0------0----0------0----0------0-0-|
---------3-2---------3-2---------3-2-----0-|
--3-3--3----0-3-3--3----0-3-3--3----0-2--2-|
-1-----------1-----------1-----------0---3-|
-----0-----------0-----------0-------------|
Tap to rate this tab
# A B C D E F G H I J K L M N O P Q R S T U V W X Y Z