Guitaretab - guitar tabs
Song name
# A B C D E F G H I J K L M N O P Q R S T U V W X Y Z
Home / T / Throwdown / Burn tab

Throwdown - Burn tab

Band  - Throwdown
Song - Burn
Tuning: C-G-C-F-A-D

Intro:

D|------------------------------------------|
A|------------------------------------------|
F|------------------------------------------|
C|------------------------------------------| x 4 then play..
G|------------------------------------------|
C|-0000000000000-66-55-3p0------------------|

D|-------------------|
A|-------------------|
F|-------------------|
C|-1-1---------------|
G|-1-1---------------|
C|-1-1 < pause|

D|-----------------------------------------|
A|-----------------------------------------|
F|-----------------------------------------|
C|-0000000000000-66-55---------------------| x 4 then play.........
G|-0000000000000-66-55---------------------|
C|-0000000000000-66-55-3p0-----------------|

D|--------------------|
A|--------------------|
F|--------------------|
C|--------------------|
G|-001--0011----------|
C|-001--0011----------|
   ..  ..

verse;

D|---------------------------------------------------------------|
A|---------------------------------------------------------------|
F|---------------------------------------------------------------|
C|-0000-0000-0000-0000-0000-0000-0------------| x 4--------------|
G|-0000-0000-0000-0000-0000-0000-0-------------------------------|
C|-0000-0000-0000-0000-0000-0000-0-35p3--------------------------|
   ..   ..   ..   ..   ..   ..

Pre Chorus:

D|-------------------------------------------------------------|
A|-------------------------------------------------------------|
F|-------------------------------------------------------------|
C|-----00-----00-----00-----00-----00-----------------| x 3----|
G|-----00-----00-----00-----00-----00--------------------------|
C|-1p0-00-2p0-00-1p0-00-2p0-00-1p0-00-2p0----------------------|

Chorus:

D|-------------------------------------------|
A|-------------------------------------------|
F|-------------------------------------------|
C|-0000000000000-66-55-----------------------| x 3 ( 3rd time when double Bass Comes In)
G|-0000000000000-66-55-----------------------|
C|-0000000000000-66-55-3p0-------------------|

D|-------------------------------|
A|-------------------------------|
F|-------------------------------|
C|-------------------------------|
G|-001-0011-0000011--------------|
C|-001-0011-0000011--------------|
   ..  ..   .....

D|------------------------------------------|
A|------------------------------------------|
F|------------------------------------------|
C|-0000000000000-66-55----------------------| x 3 ( 3rd time when double Bass Comes In)
G|-0000000000000-66-55----------------------|
C|-0000000000000-66-55-3p0------------------|

D|-------------------------------|
A|-------------------------------|
F|-------------------------------|
C|-------------------------------|
G|-001-0011-0000011--------------|
C|-001-0011-0000011--------------|
   ..  ..   .....

verse;
[ Tab from: http://www.guitaretab.com/t/throwdown/137602.html ]
D|---------------------------------------------------------------|
A|---------------------------------------------------------------|
F|---------------------------------------------------------------|
C|-0000-0000-0000-0000-0000-0000-0------------| x 4--------------|
G|-0000-0000-0000-0000-0000-0000-0-------------------------------|
C|-0000-0000-0000-0000-0000-0000-0-35p3--------------------------|
   ..   ..   ..   ..   ..   ..
Pre Chorus:

D|-------------------------------------------------------------|
A|-------------------------------------------------------------|
F|-------------------------------------------------------------|
C|-----00-----00-----00-----00-----00-----------------| x 3----|
G|-----00-----00-----00-----00-----00--------------------------|
C|-1p0-00-2p0-00-1p0-00-2p0-00-1p0-00-2p0----------------------|


Chorus:


D|-----------------------------------------|
A|-----------------------------------------|
F|-----------------------------------------|
C|-0000000000000-66-55---------------------| x 3 ( 3rd time when double Bass Comes In)
G|-0000000000000-66-55---------------------|
C|-0000000000000-66-55-3p0-----------------|

D|-------------------------------|
A|-------------------------------|
F|-------------------------------|
C|-------------------------------|
G|-001-0011-0000011--------------|
C|-001-0011-0000011--------------|
   ..  ..   .....

D|-----------------------------------------|
A|-----------------------------------------|
F|-----------------------------------------|
C|-0000000000000-66-55---------------------| x 3 ( 3rd time when double Bass Comes In)
G|-0000000000000-66-55---------------------|
C|-0000000000000-66-55-3p0-----------------|

D|-------------------------------|
A|-------------------------------|
F|-------------------------------|
C|-------------------------------|
G|-001-0011-0000011--------------|
C|-001-0011-0000011--------------|
   ..  ..   .....

Breakdown

D|----------------------------------------------------------|
A|----------------------------------------------------------|
F|----------------------------------------------------------|
C|-000-1-00-2-000-1-00-2-000-1-00-1-00-1--| x 3-------------|
G|-000-1-00-2-000-1-00-2-000-1-00-1-00-1--------------------|
C|-000-1-00-2-000-1-00-2-000-1-00-1-00-1--------------------|
   ...   ..   ...   ..   ...   ..   ..

Outro Chorus:


D|-----------------------------------------|
A|-----------------------------------------|
F|-----------------------------------------|
C|-0000000000000-66-55---------------------| x 3 ( 3rd time when double Bass Comes In)
G|-0000000000000-66-55---------------------|
C|-0000000000000-66-55-3p0-----------------|

D|------------------------------|
A|------------------------------|
F|------------------------------|
C|------------------------------|
G|-001-0011-0000011-------------|
C|-001-0011-0000011-------------|
   ..  ..   .....

D|-----------------------------------------|
A|-----------------------------------------|
F|-----------------------------------------|
C|-0000000000000-66-55---------------------| x 3 ( 3rd time when double Bass Comes In)
G|-0000000000000-66-55---------------------|
C|-0000000000000-66-55-3p0-----------------|

D|------------------------------|
A|------------------------------|
F|------------------------------|
C|------------------------------|
G|-001-0011-0000011-------------|
C|-001-0011-0000011-------------|
   ..  ..   .....
Related for Burn tab
Advertisement will be closed in 10 seconds