Song name
# A B C D E F G H I J K L M N O P Q R S T U V W X Y Z

Tiger Army - Calling tab

Help us improve GuitareTab! Take a short survey!
Song: The Calling
Album: Ghost Tigers Rise
Tuning: standard

This is the 11th track off of Tiger Army's third album. I skipped
around the order a bit because this song was requested and I'd rather
take requests as first priority. Any who, this song definitely is 
a track on its own as you can start to hear their new wave influences
they eventually incorporated on their latest album. To achieve 
the tone, I use the "Chorus" effect,clean, on my amp and turn the 
reverb up a little as well. Play it out of the 
rhythm pickup (neck pickup) to achieve it to it's fullest.
Less talkie, more tabbie. Let's go!!



INTRO:(kinda sounds like the intro to Joy Divisions' Love Will Tear Us Apart)
e|---------000~----------000~-----------00000000----|
B|---------000~----------000~-----------00000000----|
G|---------222~----------222~-----------22222222----|
D|-33333---333~--33333---333~--33333----33333333----|
A|-33333---------33333---------33333----33333333----|
E|-11111---------11111---------11111----11111111----|

e|-----------0--------------------1--------------------------------------|
B|-----3-------3-------------1------1-------------5-----6--5-------------|
G|-------2-------2-------------2------2-------------5--------5-----------|
D|--3------3-------3------3------3------3------5------5--------5-----8---|
A|-------------------------------------------------------------------8---|
E|-------------------------------------------------------------------6---|

e|-----------0--------------------1------------3~--8--8--8-------------|
B|-----3-------3-------------1------1----------3~--8--8--8-----xxxx----|
G|-------2-------2-------------2------2--------4~--9--9--9-----xxxx----|
D|--3------3-------3------3------3------3------5~--10-10-10----xxxx----|
A|---------------------------------------------5~--10-10-10----xxxx----|
E|---------------------------------------------3~--8--8--8-------------|


VERSE:
e|----1---------------1---3---8----|
B|-7--1---5-------7---1---3---8----|
G|-7--2---5-------7---2---4---9----|
D|-7--3---5---8---7---3---5---10---|x2
A|-5--3---3---8---5---3---5---10---|
E|----1-------6-------1---3---8----|

CHORUS:
e|-----------0--------------------1---------------------------------------------|
B|-----3-------3-------------1------1-------------5-----6--5--------------------|
G|-------2-------2-------------2------2-------------5--------5------------------|
D|--3------3-------3------3------3------3------5------5--------5----------------|
A|-----------------------------------------------------------------5-5-5-5-5-5--|
E|-----------------------------------------------------------------6-5-6-8-6-5--|

e|-----------0--------------------1----------3~------|
B|-----3-------3-------------1------1--------3~---5~-|
G|-------2-------2-------------2------2------4~---5~-|
D|--3------3-------3------3------3------3----5~---5~-|
A|-------------------------------------------5~---3~-|
E|-------------------------------------------3~------|

e|-----------0--------------------1---------------------------------------------|
B|-----3-------3-------------1------1-------------5-----6--5--------------------|
G|-------2-------2-------------2------2-------------5--------5------------------|
D|--3------3-------3------3------3------3------5------5--------5----------------|
A|-----------------------------------------------------------------5-5-5-5-5-5--|
E|-----------------------------------------------------------------6-5-6-8-6-5--|

e|-----------0--------------------1----------3~------|
B|-----3-------3-------------1------1--------3~------|
G|-------2-------2-------------2------2------4~------|
D|--3------3-------3------3------3------3----5~---8~-|
A|-------------------------------------------5~---8~-|
E|-------------------------------------------3~---6~-|

POST CHORUS LEAD FILL
e|-------------------------------------------------------------------------------------|
B|-------------10~-------------10~--------------10~--------------10----------------10~-|
G|-5-7--5-7----10~--5-7--5-7---10~---5-7--5-7---10~---10-12--10--12(b)--5-7--5-7---10~-|
D|-------------------------------------------------------------------------------------|
A|-------------------------------------------------------------------------------------|
E|-------------------------------------------------------------------------------------|

Repeat song starting from VERSE:

When doing the POST CHORUS LEAD FILL the second time around, Nick adds another measure to it.
Here it is:
e|--------------------------------------------|
B|------------------------11\-----------------|
G|-5-7--5-7---------------11\-----------7~----|
D|------------7\------------------------7~----|
A|------------5\------------------------5~----|
E|--------------------------------------------|

Repeat the CHORUS
End with the INTRO

That's it guys! Let me know what you think. Have fun!


| /  slide up
| \  slide down
| h  hammer-on
| p  pull-off
| ~  vibrato
| +  harmonic
| x  Mute note
===============================================================================
Related for Calling tab