Song name
# A B C D E F G H I J K L M N O P Q R S T U V W X Y Z

Tiger Army - Devil Girl tab

Tabbed by: diablo83
Email: rvasquez83@roadrunner.com

Tuning: Standard

Here's the 5th track off of Tiger Army's first album.I'm pretty
sure it's at least 90% right. Some parts in the solo were a little
unclear to me but I think I managed to pull it off. Oh, a teeny 
tiny little tip when playing Tiger Army. Put your pickup selector
switch right in the middle to play out of both pickups to achieve
that warm Tiger Army sound. Strums are NOT exact. 
Here we go! 


VERSE:
    A 
e|------| 
B|------|  
G|------|  
D|--7~--|  
A|--7~--|  
E|--5~--|  
"...she's my little devil..."


      D                          A
e|-------------------------| |-------|
B|-------------------------| |-------|
G|-------------------------| |-------|
D|-7-7-9-7-7-7-9-7-7-7-9-7-| |----7--|
A|-5-5-5-5-5-5-5-5-5-5-5-5-| |----7--|
E|-------------------------| |----5--|
                              "cruising down the road.."



there's that moving pinkie again (10th fret)
      D/E               A          D                A  E
e|------------------| |-------------------------------------------------|
B|-7/9-10-9--9-9----| |--------------------------------9----------------|
G|-7/9--9-9-10-9----| |--------------------------------9----------------|
D|-7/9--9-9--9-9----| |-7--7-7-9-7-7-7-9-7-7-7-9-7--7--9----------------|
A|-5/7--7-7--7-7----| |-7--5-5-5-5-5-5-5-5-5-5-5-5--7--7----------------|
E|------------------| |-5---------------------------5-----12/slide-down-|
                                                                                   

PRE CHORUS:

    F# barred         D    A        D/E
e|------2--------2-|----|-----|-------------------|
B|------2--------2-|----|-----|--7/-9-10-9--9-9---|
G|-3-3--3---3-3--3-|--7-|-----|--7/-9--9-9-10-9---|
D|-4-4------4-4----|--7-|---7-|--7/-9--9-9--9-9---|
A|-4-4------4-4----|--5-|---7-|--5/-7--7-7--7-7---|
E|-2-2------2-2----|----|---5-|-------------------|

"even as the time is getting tight.. "

Repeat the pre-chorus. Instead of playing the last measure, play this
    
    E/D/C#/B
e|----------|
B|----------|
G|--9-7-6-4-|>>>>>>REPEAT WHOLE SONG STARTING 
D|--9-7-6-4-|      FROM THE VERSE.
A|--7-5-4-2-|
E|----------|

SOLO: 

e|--5----5--------------------------------------------------------|
B|--5----5--------------------------------------------------------|
G|--7(b)-7(b)>>>>>after 2nd time, release 7th fret bend back down-|
D|----------------------------------------------------------------|
A|----------------------------------------------------------------|
E|----------------------------------------------------------------|

e|----------------------------------------------------------|
B|---5-5-5-5-5-5-5----------5-----------------/8-8-8-8-10-8-|
G|-5-7-7-7-5h7-7-5------6--7-----7--6h7p6-----/7-7-7-7--7-7-|
D|--------------------7------------------7------------------|
A|----------------------------------------------------------|
E|----------------------------------------------------------|

e|--5-----5555-----/88888--5----5555---------555555---------------|
B|--5-----5555-----/77777--5----5555---------444444---------------|
G|-----7-------7-------------7-------7----------------------------|
D|-------------------------------------7/10-----------------------|
A|----------------------------------------------------------------|
E|-----------------------------------------------------12/--------|

AFTER SOLO, PLAY THE PRE-CHORUS. AFTER LAST MEASURE, PLAY:
   F#                                          D
e|--2~------------------------------------------------|
B|--2~------------------------------------------------|
G|--3~-------------------------------------77777777---|>>>right when 
D|--4~-------------------------------------77777777---|  he says "night"
A|--4~-------------------------------------55555555---|  palm-mute, and
E|--2~------------------------------------------------|  slowly release.
                                           pm... 
      ..............off i cruise into the night... and i'm alone once again"
    

    A/D/A/E/D/C#.....END ON F#
e|-------------------2~---|
B|-------------------2~---|
G|-----7-----9-7-6---3~---| >>>if you have a Bigsby
D|--7--7--7--9-7-6---4~---|  or any kind of vibrato bar,
A|--7--5--7--7-5-4---4~---|  play the hell out of it on that F#!! =)
E|--5-----5----------2~---|
                              
   THAT'S IT! THANKS AGAIN! 

| /  slide up
| \  slide down
| h  hammer-on
| p  pull-off
| ~  vibrato
| +  harmonic
| x  Mute note
===============================================================================
Tap to rate this tab
# A B C D E F G H I J K L M N O P Q R S T U V W X Y Z