Song name
# A B C D E F G H I J K L M N O P Q R S T U V W X Y Z

Tiger Army - Temptation tab

Band: Tiger Army
Album: Early Years E.P
Tuning: standard

Long time, no see, kids. Been busy still trying to
move in. Good thing this tab is an absolute cinch!
This song is usually performed live for the "veteran"
fans if you will. Very good song. Probably my second 
favorite off of this mini album. Strums not exact. Let's
go!

INTRO:
   E/C/B
e|---------------------|
B|---------------------|
G|-999~--555~--444~~~~-|
D|-999~--555~--444~~~~-|
A|-777~--333~--222~~~~-|
E|---------------------|

PRE-VERSE (notice the little change on the G when playing that B chord)
  E/C/Bm
e|----------|-------------|---------|----------------------------|
B|----------|-------3-3-3-|---------|-------3-3-3-3-3-3-3-3-3-3--|
G|-9--5--4--|-9--5--4-5-4-|-9--5--4-|-9--5--4-5-4-5-4-5-4-5-4-5--|
D|-9--5--4--|-9--5--4-4-4-|-9--5--4-|-9--5--4-4-4-4-4-4-4-4-4-4--|
A|-7--3--2--|-7--3--2-2-2-|-7--3--2-|-7--3--2-2-2-2-2-2-2-2-2-2--|
E|----------|-------------|---------|----------------------------|

VERSE:
  E/G/D/A
e|-----------5--|
B|-----------5--|
G|-9--12--7--6--|
D|-9--12--7--7--|X2
A|-7--10--5--7--|
E|-----------5--|

For the chorus, repeat the PRE-VERSE
Repeat song starting from VERSE

OUTRO:
This is the part towards the end when he says "Temptation"
e|-------------------|
B|-------------------|
G|-9--12--7----7---7-|
D|-9--12--7--7-7-7-7-|x2
A|-7--10--5--7-5-7-5-|
E|-----------5---5---|

END WITH:
e|----------------------|
B|----------------------|
G|-999~--555~--444~~~~--|
D|-999~--555~--444~~~~--|
A|-777~--333~--222~~~~--|
E|----------------------|

That's it guys! Another cinch from Tiger Army. Up
next is "American Nightmare" which was originally
done by The Misfits. Have fun!


| /  slide up
| \  slide down
| h  hammer-on
| p  pull-off
| ~  vibrato
| +  harmonic
| x  Mute note
===============================================================================
Tap to rate this tab
# A B C D E F G H I J K L M N O P Q R S T U V W X Y Z