Song name
# A B C D E F G H I J K L M N O P Q R S T U V W X Y Z

Tiger Army - Loop tab

Tabbed by: Geoff 13
Email:

Tuning: STANDARD!

This may not be perfect but I looked and looked and I couldnt find any guitar tabs for
song so I did the work myself. I really like tiger armys take on this song and I think
voice compliments Morriseys well.
Before yous start pay attention to the slides a few of them are "Surf" style so be sure
rev up or down as needed on them. i f you need to hear the song go to purevolume.com and
up TIGER ARMY it should be there! Write me at http://www.myspace.com/geoffveratu or look 
WHITE DEVIL for comments or if you find a better version

ONE.....TWO.....ONE, TWO, ONE-TWO-THREE!

MAIN RIFF: x3
e|--------------------------------------------------------------------------|
B|--------------------------------------------------------------------------|
G|--------------------------------------------------------------------------|
D|-------5--3---------------------------------------------------------------|
A|-------------3-3--5--1----------------------------------------------------|
E|----3---------------------------------------------------------------------|


SCALE UP:
e|---------------------------------------------------------------------------|
B|---------------------------------------------------------------------------|
G|---------------------------------------------------------------------------|
D|--5-/-6-/-7-/-8-/-9-/-10---------------------------------------------------|
A|--5-/-6-/-7-/-8-/-9-/-10---------------------------------------------------|
E|--3-/-4-/-5-/-6-/-7-/-8----------------------------------------------------|

MAIN RIFF 2: x2
e|--------------------------------------------------------------------------|
B|--------------------------------------------------------------------------|
G|------5---3---------------------------------------------------------------|
D|------5-----3-3--5--1-----------------------------------------------------|
A|---3----------------------------------------------------------------------|
E|--------------------------------------------------------------------------|

MAIN RIFF: he slides up to 10
e|---------------------------------------------------------------------------|
B|---------------------------------------------------------------------------|
G|---------------------------------------------------------------------------|
D|-------5--3--------------------5--3----------------------------------------|
A|-------------3-3--5--1---------------3---5--/10\---------------------------|
E|----3------------------------3---------------------------------------------|


FILLER:
e|---------------------------------------------------------------------|
B|---------------------------------------------------------------------|
G|----------88-66-88-----88-66-88-----55-33-55--5--3--5----------------|
D|----------------------------------------------5--3--5----------------|
A|-------6------------6-------------3----------------------------------|
E|---------------------------------------------------------------------|


FILLER CONTINUED:
e|---------------------------------------------------------------------------|
B|---------------------------------------------------------------------------|
G|------88-66-88---88-66-88----55-33-55--\5----------------------------------|
D|---------------------------------------\5----------------------------------|
A|----6---------6------------3-----------\3----------------------------------|
E|---------------------------------------------------------------------------|

MIAN RIFF: x3
e|--------------------------------------------------------------------------|
B|--------------------------------------------------------------------------|
G|--------------------------------------------------------------------------|
D|-------5--3---------------------------------------------------------------|
A|-------------3-3--5--1----------------------------------------------------|
E|----3---------------------------------------------------------------------|

SCALE UP:
e|---------------------------------------------------------------------------|
B|---------------------------------------------------------------------------|
G|---------------------------------------------------------------------------|
D|--5-/-6-/-7-/-8-/-9-/-10---------------------------------------------------|
A|--5-/-6-/-7-/-8-/-9-/-10---------------------------------------------------|
E|--3-/-4-/-5-/-6-/-7-/-8----------------------------------------------------|

MAIN RIFF 2: The second time he "rock and roll bends" (5) to make effect
e|---------------------------------------------------------------|
B|------------------------------------3--------------------------|
G|------5---3-------------------5--3-(5)-3-----------------------|
D|------5-----3-3--5--1---------5-----------5--3-----------------|
A|---3-----------------------3-----------------------------------|
E|---------------------------------------------------------------|


MAIN RIFF: he slides up to 10
e|---------------------------------------------------------------------------|
B|---------------------------------------------------------------------------|
G|---------------------------------------------------------------------------|
D|-------5--3--------------------5--3----------------------------------------|
A|-------------3-3--5--1---------------3---5--/10\---------------------------|
E|----3------------------------3---------------------------------------------|

FILLER:
e|---------------------------------------------------------------------|
B|---------------------------------------------------------------------|
G|----------88-66-88-----88-66-88-----55-33-55--5--3--5----------------|
D|----------------------------------------------5--3--5----------------|
A|-------6------------6-------------3----------------------------------|
E|---------------------------------------------------------------------|


FILLER CONTINUED:
e|---------------------------------------------------------------------------|
B|---------------------------------------------------------------------------|
G|------88-66-88---88-66-88----55-33-55--\5----------------------------------|
D|---------------------------------------\5----------------------------------|
A|----6---------6------------3-----------\3----------------------------------|
E|---------------------------------------------------------------------------|

MIAN RIFF: x1
e|--------------------------------------------------------------------------|
B|--------------------------------------------------------------------------|
G|--------------------------------------------------------------------------|
D|-------5--3---------------------------------------------------------------|
A|-------------3-3--5--1----------------------------------------------------|
E|----3---------------------------------------------------------------------|

SCALE UP:
e|---------------------------------------------------------------------------|
B|---------------------------------------------------------------------------|
G|---------------------------------------------------------------------------|
D|--5-/-6-/-7-/-8-/-9-/-10---------------------------------------------------|
A|--5-/-6-/-7-/-8-/-9-/-10---------------------------------------------------|
E|--3-/-4-/-5-/-6-/-7-/-8----------------------------------------------------|

                     *singing*
     "I just want to say....I havent been away."

HARMONIC CHORUS: Much vibrato...
e|----3----------3---------6-------------------------------------------|
B|----4----------3---------6-------------------------------------------|
G|----5----------4---------7-------------------------------------------|
D|----5----------5---------8-------------------------------------------|
A|----3-----------------------------------1111-3-5-555-33-11-----------|
E|---------------------------------------------------------------------|

HARMONIC CHORUS 2: Much Vibrato...and there is no mistake here he lets go of the 4 and 
it be a 3.
e|----3----------3------------------6-------3-----------------------|
B|----4----------3-------------6-----6------3-----------------------|
G|----5----------3------------7-7-----7-----3-----------------------|
D|----5----------5-----------8---8-----8----5-----------------------|
A|----3-------------------------------------------------------------|
E|------------------------------------------------------------------|

HARMONIC CHORUS: Much vibrato...
e|----3----------3---------6-------------------------------------------|
B|----4----------3---------6-------------------------------------------|
G|----5----------3---------7-------------------------------------------|
D|----5----------5---------8-------------------------------------------|
A|----3-----------------------------------1111-3-5-555-33-11-----------|
E|---------------------------------------------------------------------|

HARMONIC CHORUS 3:..........double pick here!
e|----3----------3---------55555-55555--6--5--6--5---------------|
B|----4----------3---------66666-66666--6--6--6--6---------------|
G|----5----------3---------55555-55555--5--5--5--5---------------|
D|----5----------5----------------------------------\5-----------|
A|----3----------------------------------------------------------|
E|---------------------------------------------------------------|

MIAN RIFF: x1
e|--------------------------------------------------------------------------|
B|--------------------------------------------------------------------------|
G|--------------------------------------------------------------------------|
D|-------5--3---------------------------------------------------------------|
A|-------------3-3--5--1----------------------------------------------------|
E|----3---------------------------------------------------------------------|

SCALE UP:
e|---------------------------------------------------------------------------|
B|---------------------------------------------------------------------------|
G|---------------------------------------------------------------------------|
D|--5-/-6-/-7-/-8-/-9-/-10---------------------------------------------------|
A|--5-/-6-/-7-/-8-/-9-/-10---------------------------------------------------|
E|--3-/-4-/-5-/-6-/-7-/-8----------------------------------------------------|

HARMONIC CHORUS: Much vibrato...
e|----3----------3---------6-------------------------------------------|
B|----4----------3---------6-------------------------------------------|
G|----5----------4---------7-------------------------------------------|
D|----5----------5---------8-------------------------------------------|
A|----3-----------------------------------1111-3-5-555-33-11-----------|
E|---------------------------------------------------------------------|

HARMONIC CHORUS 2: Much Vibrato...and there is no mistake here he lets go of the 4 and 
it be a 3.
e|----3----------3------------------6-------3-----------------------|
B|----4----------3-------------6-----6------3-----------------------|
G|----5----------3------------7-7-----7-----3-----------------------|
D|----5----------5-----------8---8-----8----5-----------------------|
A|----3-------------------------------------------------------------|
E|------------------------------------------------------------------|

HARMONIC CHORUS: Much vibrato...
e|----3----------3---------6-------------------------------------------|
B|----4----------3---------6-------------------------------------------|
G|----5----------3---------7-------------------------------------------|
D|----5----------5---------8-------------------------------------------|
A|----3-----------------------------------1111-3-5-555-33-11-----------|
E|---------------------------------------------------------------------|

HARMONIC CHORUS 3:..........double pick her!
e|----3----------3---------55555-55555--6--5--6--5---------------|
B|----4----------3---------66666-66666--6--6--6--6---------------|
G|----5----------3---------55555-55555--5--5--5--5---------------|
D|----5----------5----------------------------------\5-----------|
A|----3----------------------------------------------------------|
E|---------------------------------------------------------------|

MIAN RIFF: x3
e|--------------------------------------------------------------------------|
B|--------------------------------------------------------------------------|
G|--------------------------------------------------------------------------|
D|-------5--3---------------------------------------------------------------|
A|-------------3-3--5--1----------------------------------------------------|
E|----3---------------------------------------------------------------------|


SCALE UP:
e|---------------------------------------------------------------------------|
B|---------------------------------------------------------------------------|
G|---------------------------------------------------------------------------|
D|--5-/-6-/-7-/-8-/-9-/-10---------------------------------------------------|
A|--5-/-6-/-7-/-8-/-9-/-10---------------------------------------------------|
E|--3-/-4-/-5-/-6-/-7-/-8----------------------------------------------------|

MAIN RIFF 2: x2
e|--------------------------------------------------------------------------|
B|--------------------------------------------------------------------------|
G|------5---3---------------------------------------------------------------|
D|------5-----3-3--5--1-----------------------------------------------------|
A|---3----------------------------------------------------------------------|
E|--------------------------------------------------------------------------|

MAIN RIFF: he slides up to 10
e|---------------------------------------------------------------------------|
B|---------------------------------------------------------------------------|
G|---------------------------------------------------------------------------|
D|-------5--3--------------------5--3----------------------------------------|
A|-------------3-3--5--1---------------3---5--/10\---------------------------|
E|----3------------------------3---------------------------------------------|


FILLER:
e|---------------------------------------------------------------------|
B|---------------------------------------------------------------------|
G|----------88-66-88-----88-66-88-----55-33-55--5--3--5----------------|
D|----------------------------------------------5--3--5----------------|
A|-------6------------6-------------3----------------------------------|
E|---------------------------------------------------------------------|


FILLER CONTINUED:
e|---------------------------------------------------------------------------|
B|---------------------------------------------------------------------------|
G|------88-66-88---88-66-88----55-33-55--\5----------------------------------|
D|---------------------------------------\5----------------------------------|
A|----6---------6------------3-----------\3----------------------------------|
E|---------------------------------------------------------------------------|

MIAN RIFF: x3
e|--------------------------------------------------------------------------|
B|--------------------------------------------------------------------------|
G|--------------------------------------------------------------------------|
D|-------5--3---------------------------------------------------------------|
A|-------------3-3--5--1----------------------------------------------------|
E|----3---------------------------------------------------------------------|

SCALE UP:
e|---------------------------------------------------------------------------|
B|---------------------------------------------------------------------------|
G|---------------------------------------------------------------------------|
D|--5-/-6-/-7-/-8-/-9-/-10---------------------------------------------------|
A|--5-/-6-/-7-/-8-/-9-/-10---------------------------------------------------|
E|--3-/-4-/-5-/-6-/-7-/-8----------------------------------------------------|

MAIN RIFF 2: The second time he "rock and roll bends" (5) to make effect
e|---------------------------------------------------------------|
B|------------------------------------3--------------------------|
G|------5---3-------------------5--3-(5)-3-----------------------|
D|------5-----3-3--5--1---------5-----------5--3-----------------|
A|---3-----------------------3-----------------------------------|
E|---------------------------------------------------------------|


MAIN RIFF: he slides up to 10
e|---------------------------------------------------------------------------|
B|---------------------------------------------------------------------------|
G|---------------------------------------------------------------------------|
D|-------5--3--------------------5--3----------------------------------------|
A|-------------3-3--5--1---------------3---5--/10\---------------------------|
E|----3------------------------3---------------------------------------------|

FILLER:
e|---------------------------------------------------------------------|
B|---------------------------------------------------------------------|
G|----------88-66-88-----88-66-88-----55-33-55--5--3--5----------------|
D|----------------------------------------------5--3--5----------------|
A|-------6------------6-------------3----------------------------------|
E|---------------------------------------------------------------------|


FILLER CONTINUED:
e|---------------------------------------------------------------------------|
B|---------------------------------------------------------------------------|
G|------88-66-88---88-66-88----55-33-55--\5----------------------------------|
D|---------------------------------------\5----------------------------------|
A|----6---------6------------3-----------\3----------------------------------|
E|---------------------------------------------------------------------------|

MIAN RIFF: x2
e|--------------------------------------------------------------------------|
B|--------------------------------------------------------------------------|
G|--------------------------------------------------------------------------|
D|-------5--3---------------------------------------------------------------|
A|-------------3-3--5--1----------------------------------------------------|
E|----3---------------------------------------------------------------------|

ENDING!!!!......HIT HARD TO MAKE EVERYONE IN THE NEIGHBORHOOD KNOW THE SONG IS ENDING.
e|---------------------3---------5-------\5-------------------------------|
B|---------------------3---------5-------\5-------------------------------|
G|---------------------3-x10-----5--x10--\5-------------------------------|
D|--5-------3---4------5---------7-------\7-------------------------------|
A|--5-------3---4------5--------------------------------------------------|
E|--3-------1---2------3--------------------------------------------------|

| /  slide up
| \  slide down
| h  hammer-on
| p  pull-off
| ~  vibrato
| +  harmonic
| x  Mute note
Tap to rate this tab
 
# A B C D E F G H I J K L M N O P Q R S T U V W X Y Z