Song name
# A B C D E F G H I J K L M N O P Q R S T U V W X Y Z

Tokio Hotel - Alien tab

Alien    By   Tokio Hotel   (live version)

Tabbed by lMxD15l . 
Colaboration by thjunmj .

the tab, is 100% correct.
We are fans of Tokio Hotel from Peru in south-america.

Intro: (P.M.)
e|-----------------------------------------------------------------------|
B|-----------------------------------------------------------------------|
G|-------3-3-3------------5-5-5------------6-6-6-------------------6-5---|
D|-3-3-3-------3-3--3-3-3-------3-3--4-4-4-------4-4--4-4-4--6-6-6-------|
A|-----------------------------------------------------------------------|
E|-----------------------------------------------------------------------|

Verse:   (P.M.)
e|-----------------------------------------------------------------------|
B|-----------------------------------------------------------------------|
G|-------3-3-3------------5-5-5------------6-6-6-------------------6-5---|
D|-3-3-3-------3-3--3-3-3-------3-3--4-4-4-------4-4--4-4-4--6-6-6-------|x2
A|-----------------------------------------------------------------------|
E|-----------------------------------------------------------------------|

Pre Chorus:

Guitar 1:
e|----------------------------------------|
B|----------------------------------------|
G|----------------------------------------|
D|--44444444444---66666666666-------------|
A|--44444444444---66666666666-------------|
E|--22222222222---44444444444-------------|

Guitar 2
e|----------------------------------------|
B|----------------------------------------|
G|--------------------------6666-5-3------|
D|--------------------------xxxx-x-x------|
A|--------------------------4444-3-1------|
E|----------------------------------------|

Chorus:

Guitar 1
e|--------------------------------------------------|
B|--------------------------------------------------|
G|-33333333333-------------33333--------------------|
D|-33333333333-44444-33333-33333-33333-44444-66666--|
A|-11111111111-44444-33333-11111-33333-44444-66666--|
E|-------------22222-11111-------11111-22222-44444--|

Guitar 2
e|-------------------------|      |----------------------------|  
B|-------------------------|      |----------------------------|
G|--------6666---13131313--|      |--------------6666-5-3------|
D|--------xxxx----x-x-x-x--|x6    |--------------xxxx-x-x------|
A|--------4444---11111111--|      |--------------4444-3-1------|
E|-------------------------|      |----------------------------|

Verse: (P.M.)
e|-----------------------------------------------------------------------|
B|-----------------------------------------------------------------------|
G|-------3-3-3------------5-5-5------------6-6-6-------------------6-5---|
D|-3-3-3-------3-3--3-3-3-------3-3--4-4-4-------4-4--4-4-4--6-6-6-------|x2
A|-----------------------------------------------------------------------|
E|-----------------------------------------------------------------------|

Pre Chorus:

Guitar 1:
e|------------------------------|
B|------------------------------|
G|------------------------------|
D|-4444x-4444x-44x--6666x-6666--|
A|-4444x-4444x-44x--6666x-6666--|
E|-2222x-2222x-22x--4444x-4444--|

Guitar 2
e|------------------------------------|
B|------------------------------------|
G|--------------------------6666-5-3--|
D|--------------------------xxxx-x-x--|
A|--------------------------4444-3-1--|
E|------------------------------------|

Chorus:

Guitar 1:
e|--------------------------------------------------|
B|--------------------------------------------------|
G|-33333333333-------------33333--------------------|
D|-33333333333-44444-33333-33333-33333-44444-66666--| x2
A|-11111111111-44444-33333-11111-33333-44444-66666--|
E|-------------22222-11111-------11111-22222-44444--|

Guitar 2:       
              A                        B         
e|-------------------------|   |----------------|  
B|-------------------------|   |----------------|
G|--------6666---13131313--|   |-----6666-5-3---|
D|--------xxxx----x-x-x-x--|x6 |-----xxxx-x-x---| A n’ B :  x2
A|--------4444---11111111--|   |-----4444-3-1---|
E|-------------------------|   |----------------|

Bridge:

Guitar 1:
e|---------------------------------------------------------|
B|---------------------------------------------------------|
G|-3x3x3x3x3x3-------------3x3x3---------------------------|
D|-3x3x3x3x3x3-44444-33333-3x3x3-3x3x3-44444-66666---------| x3
A|-1x1x1x1x1x1-44444-33333-1x1x1-3x3x3-44444-66666---------|
E|-------------22222-11111-------1x1x1-22222-44444---------|

Guitar 2:
e|---------------------------------------------------------|
B|---------------------------------------------------------|
G|-----------------------------------------------6666-5-3--|
D|-----------------------------------------------xxxx-x-x--|x3
A|-----------------------------------------------4444-3-1--|
E|---------------------------------------------------------|


----------Not guitar here-----------


Guitar 2
e|----------------|
B|----------------|
G|------6666-5-3--|
D|------xxxx-x-x--|
A|------4444-3-1--|
E|----------------|

Chorus:

Guitar 1:
e|--------------------------------------------------|
B|--------------------------------------------------|
G|-33333333333-------------33333--------------------|
D|-33333333333-44444-33333-33333-33333-44444-66666--| x2
A|-11111111111-44444-33333-11111-33333-44444-66666--|
E|-------------22222-11111-------11111-22222-44444--|

Guitar 2:       
              A                        B         
e|-------------------------|   |----------------|  
B|-------------------------|   |----------------|
G|--------6666---13131313--|   |-----6666-5-3---|
D|--------xxxx----x-x-x-x--|x6 |-----xxxx-x-x---| A n’ B :  x2
A|--------4444---11111111--|   |-----4444-3-1---|
E|-------------------------|   |----------------|

Bridge:
e|--------------------------------------------------|
B|--------------------------------------------------|
G|-3x3x3x3x3x3-------------3x3x3--------------------|
D|-3x3x3x3x3x3-44444-33333-3x3x3-3x3x3-44444-66666--|
A|-1x1x1x1x1x1-44444-33333-1x1x1-3x3x3-44444-66666--|
E|-------------22222-11111-------1x1x1-22222-44444--|

Guitar 2:
e|---------------------------------------------------------|
B|---------------------------------------------------------|
G|-----------------------------------------------6666-5-3--|
D|-----------------------------------------------xxxx-x-x--|x3
A|-----------------------------------------------4444-3-1--|
E|---------------------------------------------------------|

Outro:
e|------------------------------|
B|------------------------------|
G|---3333x----------------------|
D|---3333x----------------------|
A|---1111x----------------------|
E|------------------------------|

"Tokio Hotel" , please ˇCome to Perú! 
Official Fan Club of Tokio Hotel in Perú. http://tokiohotelperu.foroactivo.com/
Tap to rate this tab
# A B C D E F G H I J K L M N O P Q R S T U V W X Y Z