Song name
# A B C D E F G H I J K L M N O P Q R S T U V W X Y Z

Tom Morello - Road I Must Travel tab

right, the intro is played up around the 9th fret

|-------------------------------------------------------------------------|
|------------------------9-------------------9----------------------------|
|------9--9--------9h11-----11-9-11----11h9----11-9--11p9/6--------9h11-9-|
|-9h11------11-9---------------------------------------------9h11---------|
|-------------------------------------------------------------------------|
|-------------------------------------------------------------------------|

the rest is some pretty simple chord work.

|-0--------x--------x--------0----|
|-0--------x--------x--------2----|
|-1--------4--------x--------2----|
|-2--------4--------11-------2----|
|-2--------2--------11-------x----|
|-0--------x--------9--------x----|
 
  E        B       C#m      Amaj

enjoy!
Tap to rate this tab
 
# A B C D E F G H I J K L M N O P Q R S T U V W X Y Z