Song name
# A B C D E F G H I J K L M N O P Q R S T U V W X Y Z

Tommy Emmanuel - Guitar Boogie tab

so this is my first tab layout. it's an easy version of guitar boogie. so please 
enjoy comment and rate:P

e--------------------------------------------------------------------------|
b--------------------------------------------------------------------------|
g-----------------------------------------2--------------------------------|
d---------2---------------------------2-4---4-2----------------------------|
a-----2-4---4-2-------2-4-5-4-2---0-4-----------4-----2-4-5-4-2---2-4-5-4-2|
E-0-4-----------4-0-4-----------4-----------------0-4-----------4----------|

e--------------------------------------------------------------------------|
b--------------------------------------------------------------------------|
g--------------------------------------------------------------------------|
d---------------222-2-------------------------------------0-2-----0-2------|
a-----2-----2-4-----------0-2-----0-2-----0-2-----0-2-0-4-----0-4----------|
E-5-4---0-4-----------0-4-----0-4-----0-4-----0-4--------------------------|

e--------------------------------------------------------------------------|
b--------------------------------------------------------------------------|
g--------------------------------------------------------------------------|
d-----------------------------------------2--------------------------------|
a-----0-2-----0-2-2-4-5-4-2-----2-----2-4----------------------------------|
E-0-4-----0-4---------------5-4---0-4--------------------------------------|

i think it's right, sounds right at least, and give me a message if you got an idea for change:)
Tap to rate this tab
 
# A B C D E F G H I J K L M N O P Q R S T U V W X Y Z