Guitaretab - guitar tabs
Song name
# A B C D E F G H I J K L M N O P Q R S T U V W X Y Z

Tool - Schism tab

Tool - Schism - Lateralus



Any comments or corrections...write to "newskin_16@hotmail.com"



-Intro
E||--------------------------------------|
B||--------------------------------------|
G||-----3-------2-------5-------7--------|
D||-----0-------3-------5-------8--------|
A||--------------------------------------|
D||--------------------------------------|

E||--------------------------------------|
B||--------------------------------------|
G||-----3-------2-------5-------7--------|
D||-----0-------3-------5-------7--------|
A||--------------------------------------|
D||--------------------------------------|

-Guitar Comes In Palm muted
                                                      \
E||-----------------------------------------------|    |
B||-----------------------------------------------|    |
G||------------------3-------2--------------------|    |
D||---/0---3---5\--------0-------0----------------|    |
A||-----------------------------------------------|    |
D||-----------------------------------------------|    |
                                                      x8
E||-----------------------------------------------|    |
B||-----------------------------------------------|    |
G||------------------3-------2-------5------------|    |
D||---/0---3---5\--------0-------0-------0--------|    |
A||-----------------------------------------------|    |
D||-----------------------------------------------|    |
                                                      /
  "I know the pieces fit cuz I watched them fall away
   mildewed and smoldering, fundamental differing"
e |----------------------|
h |----------------------|
g |----------------------|
d |--0-------------------|
a |--0-------------------|
d |--0-------------------|
     | let ring
      -------------

  "pure intention juxtaposed will set two lovers souls in motion"
e |----------------------|
h |----------------------|
g |--7-------------------|
d |-----0----------------|
a |----------------------|
d |----------------------|
     | let ring
      -------------

  "disintegrating as it goes"
e |----------------------|
h |----------------------|
g |--12------------------|
d |------0---------------|
a |----------------------|
d |----------------------|
     | let ring
      -------------

  "testing our communication"
e |----------------------|
h |----------------------|
g |--14------------------|
d |------0---------------|
a |----------------------|
d |----------------------|
     | let ring
      -------------

  "the light that fueled our fire then has burned a hole between us so
   we cannot see to reach an end crippling our communication"
e |--------------------|---------------------------|
h |--------------------|---------------------------|
g |--------------------|---------------------------|
d |--------------------|---------------------------|
a |--0--0--8--0--7--0--|--0--0--8--0--7--0--10--0--|
d |--------------------|---------------------------|    Play 4 Times

-Guitar Palm Muted
                                                  \
E||-------------------------------------------|    |
B||-------------------------------------------|    |
G||-------------------------------------------|    |
D||---------------10-------9------------------|    |
A||-/0--10--12\--------0--------0-------------|    |
D||-------------------------------------------|    |
                                                  x4
E||-------------------------------------------|    |
B||-------------------------------------------|    |
G||-------------------------------------------|    |
D||---------------10-------9--------12--------|    |
A||-/0--10--12\--------0--------0--------0----|    |
D||-------------------------------------------|    |
                                                  /
  "I know the pieces fit cuz I watched them tumble down
  no fault, none to blame it doesn't mean I don't desire to
  point the finger, blame the other, watch the temple topple over
  To bring the pieces back together, rediscover communication"
e |--------------------|---------------------------|
h |--------------------|---------------------------|
g |--------------------|---------------------------|
d |--------------------|---------------------------|
a |--0--0--8--0--7--0--|--0--0--8--0--7--0--10--0--|
d |--------------------|---------------------------|    Play 4 Times

-Guitar Palm Muted
                                                  \
E||-------------------------------------------|    |
B||-------------------------------------------|    |
G||-------------------------------------------|    |
D||---------------10-------9------------------|    |
A||-/0--10--12\--------0--------0-------------|    |
D||-------------------------------------------|    |
                                                  x4
E||-------------------------------------------|    |
B||-------------------------------------------|    |
G||-------------------------------------------|    |
D||---------------10-------9--------12--------|    |
A||-/0--10--12\--------0--------0--------0----|    |
D||-------------------------------------------|    |
                                                  /   
-Break Down #1
  "The poetry that comes from the squaring off between,
   And the circling is worth it.
   Finding beauty in the dissonance"                        \
E||-----------------------------------------------------|    |
B||-----------------------------------------------------|    |
G||-----------------------------------------------------|    |
D||-----------------------------------------------------|    |
A||--0--x--x---3--x--x--5-3---x--x---3---5--5----------3|    |
D||--0--x--x---3--x--x--5-3---x--x---3---5--5-/0h3h5\---|    |
                                                            x2
E||-----------------------------------------------------|    |
B||-----------------------------------------------------|    |
G||-----------------------------------------------------|    |
D||-----------------------------------------------------|    |
A||--0--x--x---3--x--x---3-h-5--3--x--x--3--5-5--------3|    |
D||--0--x--x---3--x--x---3-h-5--3--x--x--3--5-5-/0-3-5\-|    |
                                                            /
-Guitar Comes In Palm Muted

E||-------------------------------------------|
B||-------------------------------------------|
G||------------------3-------2----------------|
D||---/0---3---5\--------0-------0------------|
A||-------------------------------------------|
D||-------------------------------------------|

E||-------------------------------------------|
B||-------------------------------------------|
G||------------------3-------2-------5--------|
D||---/0---3---5\--------0-------0-------0----|
A||-------------------------------------------|
D||-------------------------------------------|

  "There was a time that the pieces fit, but I watched them fall away.
   Mildewed and smoldering, strangled by our coveting
   I've done the math enough to know the dangers of a second guessing
   Doomed to crumble unless we grow, and strengthen our communication"
e |--------------------|---------------------------|
h |--------------------|---------------------------|
g |--------------------|---------------------------|
d |--------------------|---------------------------|
a |--0--0--8--0--7--0--|--0--0--8--0--7--0--10--0--|
d |--------------------|---------------------------|    Play 4 Times

-Guitar Palm Muted
                                                  \
E||-------------------------------------------|    |
B||-------------------------------------------|    |
G||-------------------------------------------|    |
D||---------------10-------9------------------|    |
A||-/0--10--12\--------0--------0-------------|    |
D||-------------------------------------------|    |
                                                  x4
E||-------------------------------------------|    |
B||-------------------------------------------|    |
G||-------------------------------------------|    |
D||---------------10-------9--------12--------|    |
A||-/0--10--12\--------0--------0--------0----|    |
D||-------------------------------------------|    |
                                                  /

-Weird Part, Guitar Comes In Palm Mute
                                                  \
E||-------------------------------------------|    |
B||-------------------------------------------|    |
G||-------------------------------------------|    |
D||---------------10-------9--------12--------|    |
A||-/0--10--12\--------0--------0--------0----|    |
D||-------------------------------------------|    |
                                                  x4
E||-------------------------------------------|    |
B||-------------------------------------------|    |
G||-------------------------------------------|    |
D||---------------10-------9--------12--------|    |
A||-/0--10--12\--------0--------0--------0----|    |
D||-------------------------------------------|    |
                                                  /
-Interlude Rhythm A Palm Muted
                                                            \
E||-----------------------------------------------------|    |
B||-----------------------------------------------------|    |
G||-----------------------------------------------------|    |
D||---14--------17---------14---------19--------12------|    |
A||------0--0-------0--0-------0--0-------0--0------0--0|    |
D||-----------------------------------------------------|    |
                                                            x8
E||-----------------------------------------------------|    |
B||-----------------------------------------------------|    |
G||-----------------------------------------------------|    |
D||---14--------10---------12------10------12-----------|    |
A||------0--0-------0--0-------0-------0-------0--------|    |
D||-----------------------------------------------------|    |
                                                            /
-Interlude Rhythm B Palm Muted
  "Co-Co-Co Cold silence has a tendency to atrophy 
   any sense of compassion"                                 \
E||-----------------------------------------------------|    |   
B||-----------------------------------------------------|    |  
G||-----------------------------------------------------|    | 
D||---14--------17---------14---------19--------12------|    |
A||------0--0-------0--0-------0--0-------0--0------0--0|    |
D||-----------------------------------------------------|    |
                                                            x4
E||-----------------------------------------------------|    |
B||-----------------------------------------------------|    |
G||-----------------------------------------------------|    |
D||---14--------10---------12------10------12-----------|    |
A||------0--0-------0--0-------0-------0-------0--------|    |
D||-----------------------------------------------------|    |
                                                            /
-Interlude Rhythm C Palm Muted

E||-----------------------------------------------------|
B||-----------------------------------------------------|
G||-----------------------------------------------------|
D||--14---------17---------14--------17--------14---14--|
A||------0--0-------0--0-------0-0-------0--0------0---0|
D||-----------------------------------------------------|

E||-----------------------------------------------------|
B||-----------------------------------------------------|
G||-----------------------------------------------------|
D||--14---------17---------14--------17--------14---14--|
A||------0--0-------0--0-------0-0-------0--0------0----|
D||-----------------------------------------------------|
    Triplet/hammer on
E||-----------------------------------------------------|
B||-----------------------------------------------------|
G||-----------------------------------------------------|
D||------------10-----9-------14-------17---------------|
A||/0--10-12\------0-----0-------0--0-----0-0-----------|
D||-----------------------------------------------------|

E||-----------------------------------------------------|
B||-----------------------------------------------------|
G||-----------------------------------------------------|
D||--14------17--------14---14------14------17----------|
A||-----0-0------0--0-----0----0-------0-0-----0-0------|
D||-----------------------------------------------------|

E||-----------------------------------------------------|
B||-----------------------------------------------------|
G||-----------------------------------------------------|
D||--14------17------14---14----------------------------|
A||-----0-0-----0-0-----0----0--------------------------|
D||-----------------------------------------------------|



-Break down #2
  "between supposed brothers."
e |-----------------------------------------------------|
h |-----------------------------------------------------|
g |-----------------------------------------------------|
d |--10-----12------12------9---------------------------|
a |--8------10------10------7---------------------------|
d |-------------------------7---------------------------|    Play 2 Times
                            | let ring
                            -------------

   <~~~~~~~~~~~~~~~~~~~~~~~~~~~~~~~~~~~~~~~~~~~~~~~~~~~~ 
E||-----------------------------------------------------|
B||-----------------------------------------------------|
G||-----------------------------------------------------|
D||--14------17--------14---14------14------17----------|
A||-----0-0------0--0-----0----0-------0-0-----0-0------|
D||-----------------------------------------------------|

~~~~~~~~~~~~~~~~~~~~~~~~~~~~~~~~~~~~~~~~~~~~~~~~~~~~~~~> 
E||-----------------------------------------------------|
B||-----------------------------------------------------|
G||-----------------------------------------------------|
D||--14------17------14---14----------------------------|
A||-----0-0-----0-0-----0----0--------------------------|
D||-----------------------------------------------------|

  "between supposed lovers"

e |-----------------------------------------------------|
h |-----------------------------------------------------|
g |-----------------------------------------------------|
d |--10-----12------12------0---------------------------|
a |--8------10------10------0---------------------------|
d |-------------------------0---------------------------|    Play 1 Time
                            | let ring
                            -------------

E||-----------------------------------------------------|
B||-----------------------------------------------------|
G||-----------------------------------------------------|
D||---------7--7----7--7----------8\7-8\7---------------|
A||-0-------5--5----5--5----------6\5-6\5---------------|
D||-0---0---------0-------0--0-0-----------0--0---------|

E||-----------------------------------------------------|
B||-----------------------------------------------------|
G||-----------------------------------------------------|
D||-10--8--10--5--3--5---12--10-------------------------|
A||--8--8---8--3--3--3---10--10-------------------------|
D||--8--8---8--3--3--3---10--10----10/12----------------|

e |-----------------------------------------------------|
h |-----------------------------------------------------|
g |-----------------------------------------------------|
d |--0--12----------------------------------------------|
a |--0--12-----5--------5--------5----------------------|
d |--0--12--7-----0--5-----0--3-----2-------------------|    Play 4 Times

-Outro
  "And I know the pieces fit"
E||-----------------------------------------------------|
B||-----------------------------------------------------|
G||-----------------------------------------------------|
D||-----------------------------------------------------|
A||--3-----2--------3-----2-----5-----------------------|
D||--3--0--2--0-0---3--0--2--0--5--0--0-----------------|    Play 4 Times
   
E||-----------------------------------------------------|
B||-----------------------------------------------------|
G||-----------------------------------------------------|
D||-----------------------------------------------------|
A||--3--x--x--2--x--x-------3--x--x--2--x--x--5-x-x-x-x-|
D||--3--x--x--2--x--x-0--0--3--x--x--2--x--x--5-x-x-x-x-|    Play 3 Times


e |-----------------------------------------------------|
h |-----------------------------------------------------|
g |-----------------------------------------------------|
d |--0--0--0--12--0--0--0--14--0--0--10-----------------|
a |--0--0--0--12--0--0--0--14--0--0--10-----------------|
d |--0--0--0--12--0--0--0--14--0--0--10-----------------|    Play 4 Times

--------------------------------------------------------------------------

I know the pieces fit cuz I watched them fall away
mildewed and smoldering, fundamental differing,
pure intention juxtaposed will set two lovers souls in motion
disintegrating as it goes testing our communication
the light that fueled our fire then has burned a hole between us so
we cannot see to reach an end crippling our communication.

I know the pieces fit cuz I watched them tumble down
no fault, none to blame it doesn't mean I don't desire to
point the finger, blame the other, watch the temple topple over.

To bring the pieces back together, rediscover communication.
The poetry that comes from the squaring off between,
And the circling is worth it.
Finding beauty in the dissonance.

There was a time that the pieces fit, but I watched them fall away.
Mildewed and smoldering, strangled by our coveting
I've done the math enough to know the dangers of a second guessing
Doomed to crumble unless we grow, and strengthen our communication

cold silence has a tendency to atrophy any sense of compassion
between supposed brothers
between supposed lovers.
And I know the pieces fit.


And thats about it...
ENJOY...
[ Tab from: http://www.guitaretab.com/t/tool/25784.html ]
Related for Schism tab