Song name
# A B C D E F G H I J K L M N O P Q R S T U V W X Y Z

Toshiro Masuda - Oh Student And Teacher Affection tab

hi... im van.. i tabbed this from naruto's Oh! student and teacher affection.. so here's 
the guitar goes.. please rate.. enx.. ^^

(1)

e----------------------|
b---------12---10--12--|
g--9/11----------------|
d----------------------|
a----------------------|
E----------------------|

(2)

e-----------------------------|
b-----------------------------|
g--9b11--r9--7--9--7--9-------|
d-----------------------------|
a-----------------------------|
E-----------------------------|

(3)

e----------------------------|
b----------------------------|
g----------------------------|
d--//11----------12--p11--9--|
a----------------------------|
E----------------------------|

(4)

e-----------------------|
b-----------------------|
g-----------------------|
d--9--11--12--14--12-14-|
a-----------------------|
E-----------------------|


repeat riffs (1,2,3) then..

e--------------------------------|
b--------------------------------|
g--------------------------------|
d--11--12--11-----7--11--9-------|
a--------------------------------|
E--------------------------------|

and thats all.. enx again.. YM (krimsonline@yahoo.com)
Tap to rate this tab
 
# A B C D E F G H I J K L M N O P Q R S T U V W X Y Z