Song name
# A B C D E F G H I J K L M N O P Q R S T U V W X Y Z

Toshiro Masuda - I Said Im Naruto tab

-------------------------------------------------------------------------------
              I SAID I'M NARUTO - Toshiro Masuda (Naruto Soundtrack)
-------------------------------------------------------------------------------
Tabbed by: Cheesy Grin
Email: thom_drew33@hotmail.co.uk

I've had trouble finding a tab that's 100% for this. There are a few close ones, but I 
*fingers Crossed* that this one is the real deal.

Tuning: EADGBe (Standard)

Intro

Guitar 1

e|------------------------------------------0--------------------------------|
B|--------------------1--3-3-1-3--1-3-3-1-3---3-1----------------------------|
G|-2-2-0-2--0-2-2-0-2--------------------------------------------------------|
D|---------------------------------------------------------------------------|
A|---------------------------------------------------------------------------|
E|---------------------------------------------------------------------------|

e|------------------------------------------0--------------------------------|
B|--------------------1--3-3-1-3--1-3-3-1-3---3-1----------------------------|
G|-2-2-0-2--0-2-2-0-2--------------------------------------------------------|
D|---------------------------------------------------------------------------|
A|---------------------------------------------------------------------------|
E|---------------------------------------------------------------------------|

Guitar 2

This plays over the top of guitar 1 for the intro
e|---5`------8-10`-------12-10`----------------------------------------------|
B|---------------------------------------------------------------------------|
G|---------------------------------------------------------------------------|
D|---------------------------------------------------------------------------|
A|---------------------------------------------------------------------------|
E|---------------------------------------------------------------------------|

e|---5`------8-10`-------15-10`----------------------------------------------|
B|---------------------------------------------------------------------------|
G|---------------------------------------------------------------------------|
D|---------------------------------------------------------------------------|
A|---------------------------------------------------------------------------|
E|---------------------------------------------------------------------------|

First Solo (One Guitar)

e|------------12-10-7`---------------12-10-15-12`----------------------------|
B|--10-8-10`---------------10-8-10`----------------10-8-10`------------------|
G|---------------------------------------------------------------------------|
D|---------------------------------------------------------------------------|
A|---------------------------------------------------------------------------|
E|---------------------------------------------------------------------------|

e|-------------12-10-8-12-15`-17-12`-----------------------------------------|
B|---10-8-10`----------------------------------------------------------------|
G|---------------------------------------------------------------------------|
D|---------------------------------------------------------------------------|
A|---------------------------------------------------------------------------|
E|---------------------------------------------------------------------------|

Then repeat the intro

Guitar 1

e|------------------------------------------0--------------------------------|
B|--------------------1--3-3-1-3--1-3-3-1-3---3-1----------------------------|
G|-2-2-0-2--0-2-2-0-2--------------------------------------------------------|
D|---------------------------------------------------------------------------|
A|---------------------------------------------------------------------------|
E|---------------------------------------------------------------------------|

e|------------------------------------------0--------------------------------|
B|--------------------1--3-3-1-3--1-3-3-1-3---3-1----------------------------|
G|-2-2-0-2--0-2-2-0-2--------------------------------------------------------|
D|---------------------------------------------------------------------------|
A|---------------------------------------------------------------------------|
E|---------------------------------------------------------------------------|

Guitar 2

This plays over the top of guitar 1 for the intro
e|---5`------8-10`-------12-10`----------------------------------------------|
B|---------------------------------------------------------------------------|
G|---------------------------------------------------------------------------|
D|---------------------------------------------------------------------------|
A|---------------------------------------------------------------------------|
E|---------------------------------------------------------------------------|

e|---5`------8-10`-------15-10`----------------------------------------------|
B|---------------------------------------------------------------------------|
G|---------------------------------------------------------------------------|
D|---------------------------------------------------------------------------|
A|---------------------------------------------------------------------------|
E|---------------------------------------------------------------------------|

Break (One Guitar)

e|---17-15-12-15-17`-------------17-15-12-15-17`-----------------------------|
B|---------------------------------------------------------------------------|
G|----------------------5`/7`---------------------5`-------------------------|
D|----------------------5`/7`---------------------5`-------------------------|
A|----------------------3`/5`---------------------3`-------------------------|
E|---------------------------------------------------------------------------|


e|---17-15-12-15-17`-------------17-15-12-15-17`-------------------------------|
B|-----------------------------------------------------------------------------|
G|----------------------5`/7`---------------------9`---i think this is --------|
D|----------------------5`/7`---------------------9`---played on a hammond-----|
A|----------------------3`/5`---------------------7`---organ not guitar--------|
E|-----------------------------------------------------------------------------|

Repeat Solo

e|------------12-10-7`---------------12-10-15-12`----------------------------|
B|--10-8-10`---------------10-8-10`----------------10-8-10`------------------|
G|---------------------------------------------------------------------------|
D|---------------------------------------------------------------------------|
A|---------------------------------------------------------------------------|
E|---------------------------------------------------------------------------|

e|-------------12-10-8-12-15`-17-12`-----------------------------------------|
B|---10-8-10`----------------------------------------------------------------|
G|---------------------------------------------------------------------------|
D|---------------------------------------------------------------------------|
A|---------------------------------------------------------------------------|
E|---------------------------------------------------------------------------|

Then repeat intro again

Guitar 1

e|------------------------------------------0--------------------------------|
B|--------------------1--3-3-1-3--1-3-3-1-3---3-1----------------------------|
G|-2-2-0-2--0-2-2-0-2--------------------------------------------------------|
D|---------------------------------------------------------------------------|
A|---------------------------------------------------------------------------|
E|---------------------------------------------------------------------------|

e|------------------------------------------0--------------------------------|
B|--------------------1--3-3-1-3--1-3-3-1-3---3-1----------------------------|
G|-2-2-0-2--0-2-2-0-2--------------------------------------------------------|
D|---------------------------------------------------------------------------|
A|---------------------------------------------------------------------------|
E|---------------------------------------------------------------------------|

Guitar 2

This plays over the top of guitar 1 for the intro
e|---5`------8-10`-------12-10`----------------------------------------------|
B|---------------------------------------------------------------------------|
G|---------------------------------------------------------------------------|
D|---------------------------------------------------------------------------|
A|---------------------------------------------------------------------------|
E|---------------------------------------------------------------------------|

e|---5`------8-10`-------15-10`----------------------------------------------|
B|---------------------------------------------------------------------------|
G|---------------------------------------------------------------------------|
D|---------------------------------------------------------------------------|
A|---------------------------------------------------------------------------|
E|---------------------------------------------------------------------------|

Outro

e|--17-15-12-15----10-12-10-8-12----5-8-5-3-5--5-3`-----3-3-3-5-3-5---15-17--|
B|---------------------------------------------------------------------------|
G|---------------------------------------------------------------------------|
D|---------------------------------------------------------------------------|
A|---------------------------------------------------------------------------|
E|---------------------------------------------------------------------------|

That's it. If anyone has any corrections/suggestions, please e-mail me at: thom_drew33@hotmail.co.uk

=) Have fun


| /  slide up
| \  slide down
| h  hammer-on
| p  pull-off
| `  let ring
| +  harmonic
| x  Mute note
===============================================================================
Tap to rate this tab
# A B C D E F G H I J K L M N O P Q R S T U V W X Y Z