Song name
# A B C D E F G H I J K L M N O P Q R S T U V W X Y Z

Toshiro Masuda - Orochimarus Theme tab

|-5-1------5-1------5-1------7-4-0-|  x3
|-----3--------3--------3----------|
|----------------------------------|
|----------------------------------|
|----------------------------------|
|----------------------------------|

|-8-4------8-4------8-4------9-6---|  x3
|-----6--------6--------6--------7-|
|----------------------------------|
|----------------------------------|
|----------------------------------|
|----------------------------------|

Just the intro and it's my first tab
Tap to rate this tab
# A B C D E F G H I J K L M N O P Q R S T U V W X Y Z