Song name
# A B C D E F G H I J K L M N O P Q R S T U V W X Y Z

Toshiro Masuda - Grief And Sorrow tab

I got most of it from the version of songsterr.com but then I saw some mistakes and some 
that could be made a lot easier to play. So I
fixed it up, and this is what I got.

E---0------------------7---5---3------------------------|
B---1---------0--------------------1-------1---3--------|
G---2------2--------5--------------0----0---------------|
D---2---2--------------------------2--------------------|
A---0------------------------------3--------------------|
E-------------------------------------------------------|

E---0-------3-------------------------------0-----3-----|
B-------1--------3-----------------1-3-1----1--1--0-----|
G----------------2--------------------------2-----0---0-|
D----------------0-------0--2--3------------3-----0---0-|
A---------------------0---------------------3-----2-----|
E-------------------------------------------------3-----|

E---0--------------------7---5---3----------------------|
B---1---------0----------------------1-------1---3------|
G---2------2--------5----------------0---0--------------|
D---2---2----------------------------2------------------|
A---0--------------------------------3------------------|
E-------------------------------------------------------|

E---0-----3---------------------------------------------|
B------1-------3-----------------1--3--1----------------|
G--------------2--------------2-----------2-------------|
D--------------0------0--2-3----------------------------|
A------------------0---------------------------0--------|
E-------------------------------------------------------|
Tap to rate this tab
 
# A B C D E F G H I J K L M N O P Q R S T U V W X Y Z