Song name
# A B C D E F G H I J K L M N O P Q R S T U V W X Y Z

Touche Amore - Gravity Metaphorically Clean Section tab

|------------------------------------------|
|--------------4slide2-0-------------------|
|-----0----------------------0---0---------|
|---5---------------------0h2--0h2---------|
|-7-----5h7p0-----------3-----3------------|
|------------------------------------| x 4-|

CHORDS AFTER 2 TIMES

|-3----------3-----5-----3-----------|
|------------------------------------|
|-4----------4-----4-----4-----------|
|-5----------5-----5-----5-----------|
|------------------------------------|
|------------------------------------|
Tap to rate this tab
# A B C D E F G H I J K L M N O P Q R S T U V W X Y Z