Song name
# A B C D E F G H I J K L M N O P Q R S T U V W X Y Z

Toxic Holocaust - Ready To Fight tab

-------------------------------------------------------------------------------
			     READY TO FIGHT - Toxic Holocaust
-------------------------------------------------------------------------------
Tabbed by: Warbringer
Email: elderscrolls167@hotmail.com (please email suggestions and advice to improve this tab)

Words and Music by: Toxic Holocaust

Tuning: Standard E tuning

Intro riff/Verse riff (play 8 times)
e|---------------------------------------------------------------------------|
B|---------------------------------------------------------------------------|
G|-------5h7-7-5-------5h7-5-3-------5h7-8-7---------------------------------|
D|-2-2---5h7-7-5-2-2---5h7-5-3-2-2---5h7-8-7-2-2-2-2-------------------------|
A|-0-0-0---------0-0-0---------0-0-0---------0-0-0-0-0-0-0-0-0---------------|
E|---------------------------------------------------------------------------|

Pre Chorus riff (play twice)
e|---------------------------------------------------------------------------|
B|---------------------------------------------------------------------------|
G|---------------------------------------------------------------------------|
D|---------------------------------------------------------------------------|
A|-7-7-7--7-7-7--3-3-3-3--5-5--7-7-7--7-7-7--7-7-7--7-7-7--------------------|
E|-5-5-5--5-5-5--1-1-1-1--3-3--5-5-5--5-5-5--5-5-5--5-5-5--------------------|

Chorus riff (play twice)
e|---------------------------------------------------------------------------|
B|---------------------------------------------------------------------------|
G|---------------------------------------------------------------------------|
D|-5-5-5--5-5-5--7-7-7--5-7-5--2-2-2--2-2-2--2-2-2--2-2-2--------------------|
A|-3-3-3--3-3-3--5-5-5--3-5-3--0-0-0--0-0-0--0-0-0--0-0-0--------------------|
E|---------------------------------------------------------------------------|

Play Verse riff 6 times
Play Pre Chorus riff twice
Play Chorus riff twice

Guitar break riff 1 (play twice)
e|---------------------------------------------------------------------------|
B|---------------------------------------------------------------------------|
G|---------------------------------------------------------------------------|
D|---------------------------------------------------------------------------|
A|-7-----7-----7--3-----3-----3--2-2--2-2-2-2-2--5-5-5-5-5-5-5-5-------------|
E|-5-5-5-5-5-5-5--1-1-1-1-1-1-1--0-0--0-0-0-0-0--3-3-3-3-3-3-3-3-------------|

Guitar break riff 2 (play twice)
e|---------------------------------------------------------------------------|
B|---------------------------------------------------------------------------|
G|---------------------------------------------------------------------------|
D|-5-----5-----5--7-7--5-7-5--2----------------------------------------------|
A|-3-3-3-3-3-3-3--5-5--3-5-3--0-0-0-0-0-0-0-0-0-0-0-0-0-0-0------------------|
E|---------------------------------------------------------------------------|

Solo (Play this bar twice)
e|---------------------------------------------------------------------------|
B|---------------------------------------------------------------------------|
G|-12-14-14--12-14-14--14-14-14---------12-14-14--12-14-14--14---------------|
D|-12-14-14--12-14-14--14-14-14-14p12---12-14-14--12-14-14--14---------------|
A|-----------------------------------12--------------------------------------|
E|-------------------------------------------------------------------------=-|

Then play this twice
e|-----------------------------------------------------------------------------------------|
B|-10-10-10-10--10101010--13-13-13-13--8-8--10-10-10-10--10101010--10-10-10-10-10101010----|
G|-----------------------------------------------------------------------------------------|
D|-----------------------------------------------------------------------------------------|
A|-----------------------------------------------------------------------------------------|
E|-----------------------------------------------------------------------------------------|

Then this twice
e|-19p15-0------------------------19p15-0--19p15-0---------------------------|
B|---------17-17--17-17--17171717------------------13-12-13-10~--------------|
G|---------------------------------------------------------------------------|
D|---------------------------------------------------------------------------|
A|---------------------------------------------------------------------------|
E|---------------------------------------------------------------------------|

Play verse riff 8 times
Play Pre Chorus riff twice
Play Chorus riff twice

| /  slide up
| \  slide down
| h  hammer-on
| p  pull-off
| ~  vibrato
| +  harmonic
| x  Mute note
===============================================================================
Tap to rate this tab
 
# A B C D E F G H I J K L M N O P Q R S T U V W X Y Z