Song name
# A B C D E F G H I J K L M N O P Q R S T U V W X Y Z

Toxic Holocaust - Nuke The Cross tab

Band- Toxic Holocaust
Song- Nuke The Cross
Tuning- Drop D
Tabber- Rebornmaster9 (blackened_death_666@yahoo.com)

The other version of the song is correct but I have a simpler way do play it

Intro Riff/ Verses
E|-------------------------------|
B|-------------------------------|
G|-------------------------------|
D|-------------------------------|
A|-------------------------------|
D|-0-0-0-0-0-0-0-0-8-6h8---------| repeat as nessicary

Second part of verses
E|---------------------------|
B|---------------------------|
G|---------------------------|
D|-0-------------------------|
A|-0-------------------------|
D|-0------10-8h10-0-0-0--10-8|

Repeat intro verse

Pre chorus (play fast)
E|--------------------------------|
B|--------------------------------|
G|--------------------------------|
D|--------------------------------|
A|-----------------3-3-3-3-1-1-1-1|
D|-0-0-0-0-3-3-3-3----------------|

E|--------------------------------|
B|--------------------------------|
G|--------------------------------|
D|--------------------------------|
A|-----------------3-3-3-3-4-4-4-4|
D|-0-0-0-0-3-3-3-3----------------|

NUKE THE CROSS!!

Repeat above to


Breakdown (palm Mute where needed)
E|--------------|
B|--------------|
G|--------------|
D|-0-00-0-00-3-6|
A|-0-00-0-00-3-6|
D|-0-00-0-00-3-6|
Repeat as needed

E|------------|
B|------------|
G|------------|
D|-8-888-6-3-0|
A|-8-888-6-3-0|
D|-8-888-6-3-0|

Repeat breakdown

Repeat from start
Then break down

(note during the last breakdown itís a great place to add a little solo bit)

End on

D|-0-|
A|-0-|
D|-0-|

This is an amazing song, and fun to play, please rate and comment and send corrections 
blackened_death_666@yahoo.com
Rebornmaster9

Lyrics
Hidden chamber beneath the Earth
Built with stone and very dark
Hiding lost atomic arms
From a war never fought
Malicious schemes, the Devil's own
Weapons under his control
Overlord splits the ground, aiming for the sky
A strike for the holy one, now it's time to die

Nuke the Cross

Wall of fire glowing bright
Lightning cracks across the sky
Warheads boiling to extremes
Religion is now history
Pit fiend in the hellish planes
Master of his domain
Sounds of the angels crying
heard throughout the night
A strike for the holy on now it's time to die

Nuke the cross

Your savior can't retaliate
Can't fight against this storm of hate
Brought on by years of lies
Cast right out from the skies
Using stockpiles made by man
Stronger than we can grasp

Missiles launched, encased in black
aiming for the sky
God can't defend this strike
Now's his time to die
Tap to rate this tab
 
# A B C D E F G H I J K L M N O P Q R S T U V W X Y Z