Song name
# A B C D E F G H I J K L M N O P Q R S T U V W X Y Z

Train - Marry Me chords

Highlighted       Show chord diagrams
Train - Marry Me (Tab and Lyrics) - Standard Tuning

This is my first one guys, figured after years of taking 
I'd finally give back.. Its pretty damn accurate, 
just listen to the song for the strum pattern. 
I tried my best to place the chords changes with 
the lyrics exactly to the timing of the change,, 
I did my best lol Enjoy! Rate it if you like it!!

C 

E|--------------------|
B|--1-----------------|
G|--------------------|
D|--------2-----------|
A|--------------3-----|
E|--------------------|

OpenBm

E|--------------------|
B|--1h3---------------|
G|--------------------|
D|--------------------|
A|--------2-----------|
E|--------------------|

Am

E|--------------------|
B|--1-----------------|
G|--------------------|
D|--------2-----------|
A|--------------------|
E|--------------------|

G/Am

E|--------------------|
B|--1-----------------|
G|--------------------|
D|--------2-----------|
A|--------------------|
E|--------------3-----|

F

E|--1-----------------|
B|--1-----------------|
G|--------2-----------|
D|--------------3-----|
A|--------------3-----|
E|--1-----------------|


E/Am

E|--------------------|
B|--1-----------------|
G|--------------------|
D|--------2-----------|
A|--------------------|
E|-0------------------|

A#

E|--1-----------------|
B|--1-----------------|
G|--------------3-----|
D|--------------3-----|
A|--1-----------------|
E|--------------------|



E/Am	    F	      E/Am	      F
           (Intro)
C		                     OpenBm
  Forever can never be long enough for me 
Am                 G/Am             F     C
Feel like I've had long enough with you
		                    OpenBm                 Am
Forget the world now we won't let them see 
            G/Am          F      E/Am
But there's one thing left to do 
                   F           E/Am              
Now that the weight has lifted 
                F
Love has surely shifted my way 


C    OpenBm   Am 
Marry Me 
 G/Am         F
Today and every day 
C     OpenBm  
  Marry Me 
   Am             G/Am
If I ever get the nerve to say 
  F
Hello in this cafe          
        E/Am
Say you will 
   F
Mm-hmm 
        E/Am
Say you will 
   F
Mm-hmm 


C		                      OpenBm
  Together can never be close enough for me 
Am             G/Am           F     C
Feel like I am close enough to you 
		                   OpenBm                      Am  G/Am
You wear white and I'll wear out the words I love 
          F         E/Am
And you're beautiful 
	 	                  F     E/Am
Now that the wait is over 
		                         F
And love and has finally showed her my way 


C    OpenBm   Am 
Marry Me 
  G/Am        F
Today and every day 
C      OpenBm  
  Marry Me 
   Am             G/Am
If I ever get the nerve to say 
   F
Hello in this cafe 
        E/Am
Say you will 
    F
Mm-hmm 
        E/Am
Say you will 
    F
Mm-hmm 


A#            Am
   Promise me  
                 C
You'll always be 
           OpenBm   A#
Happy by my side 
             Am  
I promise to 
            C
Sing to you 
                 OpenBm   A#    Am
When all the music dies 


    C    OpenBm   Am
And marry me 
  G/Am        F
Today and everyday 
C       OpenBm  
   Marry Me 
   Am             Am/G
If I ever get the nerve to say 
   F
Hello in this cafe 
        E/Am
Say you will 
    F
Mm-hmm 
        E/Am
Say you will
    F
Mm-hmm
   E/Am
Marry Me
    F 
Mm-hmm
Tap to rate this tab
 
# A B C D E F G H I J K L M N O P Q R S T U V W X Y Z