Train - Marry Me tab

-------------------------------------------------------------------------------

                             MARRY ME - Train

-------------------------------------------------------------------------------

Tabbed by: Butch R

Tuning: Standard


INTRO

e|-------------------------------------------------------------------------|
B|--1---------1-----1---------1-----1---------1-----1---------1------------|
G|--------0-----0---------0-----0---------0-----0---------0-----0----------|
D|------2---------2-----2---------2-----3---------3-----3---------3--------|
A|-------------------------------------------------------------------------|
E|--0-------0-------0-------0-------1-------1-------1-------1--------------|

e|-------------------------------------------------------------------------|
B|--1---------1-----1---------1-----1---------1-----1----------------------|
G|--------0-----0---------0-----0---------0-----0--------------------------|
D|------2---------2-----2---------2-----3---------3------------------------|
A|-------------------------------------------------------------------------|
E|--0-------0-------0-------0-------1-------1-------1----------------------|


VERSE

e|-------------------------------------------------------------------------|
B|--1---------1-----1---------1-----1---------1-----3---------3------------|
G|--------0-----0---------0-----0---------0-----0---------0-----0----------|
D|------2---------2-----2---------2-----0---------0-----0---------0--------|
A|--3-------3-------3-------3-------2-------2-------2-------2--------------|
E|-------------------------------------------------------------------------|

e|-------------------------------------------------------------------------|
B|--1---------1-----1---------1-----1---------1-----1---------1------------|
G|--------0-----0---------0-----0---------0-----0---------0-----0----------|
D|------2---------2-----0---------0-----3---------3-----3---------3--------|
A|--0-------0--------------------------------------------------------------|
E|------------------3-------3-------1-------1-------1-------1--------------|

e|-------------------------------------------------------------------------|
B|--1---------1-----1---------1-----1---------1-----3---------3------------|
G|--------0-----0---------0-----0---------0-----0---------0-----0----------|
D|------2---------2-----2---------2-----0---------0-----0---------0--------|
A|--3-------3-------3-------3-------2-------2-------2-------2--------------|
E|-------------------------------------------------------------------------|

e|-------------------------------------------------------------------------|
B|--1---------1-----1---------1-----1---------1-----1---------1------------|
G|--------0-----0---------0-----0---------0-----0---------0-----0----------|
D|------2---------2-----0---------0-----3---------3-----3---------3--------|
A|--0-------0--------------------------------------------------------------|
E|------------------3-------3-------1-------1-------1-------1--------------|


PRE-CHORUS

e|-------------------------------------------------------------------------|
B|--1---------1-----1---------1-----1---------1-----1---------1------------|
G|--------0-----0---------0-----0---------0-----0---------0-----0----------|
D|------2---------2-----2---------2-----3---------3-----3---------3--------|
A|-------------------------------------------------------------------------|
E|--0-------0-------0-------0-------1-------1-------1-------1--------------|

e|-------------------------------------------------------------------------|
B|--1---------1-----1---------1-----1---------1-----1----------------------|
G|--------0-----0---------0-----0---------0-----0--------------------------|
D|------2---------2-----2---------2-----3---------3------------------------|
A|-------------------------------------------------------------------------|
E|--0-------0-------0-------0-------1-------1-------1----------------------|


CHORUS

e|-------------------------------------------------------------------------|
B|--1---------1-----1---------1-----1---------1-----3---------3------------|
G|--------0-----0---------0-----0---------0-----0---------0-----0----------|
D|------2---------2-----2---------2-----0---------0-----0---------0--------|
A|--3-------3-------3-------3-------2-------2-------2-------2--------------|
E|-------------------------------------------------------------------------|

e|-------------------------------------------------------------------------|
B|--1---------1-----1---------1-----1---------1-----1---------1------------|
G|--------0-----0---------0-----0---------0-----0---------0-----0----------|
D|------2---------2-----0---------0-----3---------3-----3---------3--------|
A|--0-------0--------------------------------------------------------------|
E|------------------3-------3-------1-------1-------1-------1--------------|

e|-------------------------------------------------------------------------|
B|--1---------1-----1---------1-----1---------1-----3---------3------------|
G|--------0-----0---------0-----0---------0-----0---------0-----0----------|
D|------2---------2-----2---------2-----0---------0-----0---------0--------|
A|--3-------3-------3-------3-------2-------2-------2-------2--------------|
E|-------------------------------------------------------------------------|

e|-------------------------------------------------------------------------|
B|--1---------1-----1---------1-----1---------1-----1---------1------------|
G|--------0-----0---------0-----0---------0-----0---------0-----0----------|
D|------2---------2-----0---------0-----3---------3-----3---------3--------|
A|--0-------0--------------------------------------------------------------|
E|------------------3-------3-------1-------1-------1-------1--------------|

e|-------------------------------------------------------------------------|
B|--1---------1-----1---------1-----1---------1-----1---------1------------|
G|--------0-----0---------0-----0---------0-----0---------0-----0----------|
D|------2---------2-----2---------2-----3---------3-----3---------3--------|
A|-------------------------------------------------------------------------|
E|--0-------0-------0-------0-------1-------1-------1-------1--------------|

e|-------------------------------------------------------------------------|
B|--1---------1-----1---------1-----1---------1-----1----------------------|
G|--------0-----0---------0-----0---------0-----0--------------------------|
D|------2---------2-----2---------2-----3---------3------------------------|
A|-------------------------------------------------------------------------|
E|--0-------0-------0-------0-------1-------1-------1----------------------|


BRIDGE

e|-------------------------------------------------------------------------|
B|--1---------1-----1---------1-----1---------1-----1---------1------------|
G|--------0-----0---------0-----0---------0-----0---------0-----0----------|
D|------2---------2-----2---------2-----2---------2-----2---------2--------|
A|--1-------1-------1-------1-------0-------0-------0-------0--------------|
E|-------------------------------------------------------------------------|

e|-------------------------------------------------------------------------|
B|--1---------1-----1---------1-----1---------1-----3---------3------------|
G|--------0-----0---------0-----0---------0-----0---------0-----0----------|
D|------2---------2-----2---------2-----0---------0-----0---------0--------|
A|--3-------3-------3-------3-------2-------2-------2-------2--------------|
E|-------------------------------------------------------------------------|

e|-------------------------------------------------------------------------|
B|--1---------1-----1---------1-----1---------1-----1---------1------------|
G|--------0-----0---------0-----0---------0-----0---------0-----0----------|
D|------2---------2-----2---------2-----2---------2-----2---------2--------|
A|--1-------1-------1-------1-------0-------0-------0-------0--------------|
E|-------------------------------------------------------------------------|

e|-------------------------------------------------------------------------|
B|--1---------1-----1---------1-----1---------1-----3---------3------------|
G|--------0-----0---------0-----0---------0-----0---------0-----0----------|
D|------2---------2-----2---------2-----0---------0-----0---------0--------|
A|--3-------3-------3-------3-------2-------2-------2-------2--------------|
E|-------------------------------------------------------------------------|

e|-------------------------------------------------------------------------|
B|--1---------1-----1---------1-----1---------1-----1----------------------|
G|--------0-----0---------0-----0---------0-----0--------------------------|
D|------2---------2-----2---------2-----2---------2------------------------|
A|--1-------1-------1-------1-------1-------1-------1----------------------|
E|-------------------------------------------------------------------------|


Order:

VERSE
PRE-CHORUS
CHORUS
VERSE
PRE-CHORUS
CHORUS
BRIDGE
CHORUS

************************************

| /   slide up
| \   slide down
| h   hammer-on
| p   pull-off
| ~   vibrato
| +   harmonic
| x   Mute note
| b   Bend
| pb  Pre-bend
| br  Bend release
| pbr Pre-bend release
| brb Bend release bend

************************************
Tap to rate this tab
 
# A B C D E F G H I J K L M N O P Q R S T U V W X Y Z