Song name
# A B C D E F G H I J K L M N O P Q R S T U V W X Y Z

Train - 50 Ways To Say Goodbye tab

**************************************************************

[VERSE] Play this twice per verse

|-------------------------|
|-------------------------|
|-4-----------------------|
|-4--------------6--------|
|-2--------------6--------|
|----------------4--------|
     My heart is paralyzed

|-------------------------|
|-------------------------|
|-6-----------------------|
|-6--------------4--------|
|-4--------------4--------|
|----------------2--------|
     My head was oversized

|------------------------------------------|
|------------------------------------------|
|-4-------------------------------------3--|
|-4--------------------6----------------3--|
|-2--------------------6----------------1--|
|----------------------4-------------------|
      I'll take the high road like I should

You said it's meant to be
That it's not you, it's me
You're leaving now for my own good

That's cool, but if my friends ask where you are I'm gonna say

**************************************************************

[CHORUS] Play this twice

|-----------------------------|
|-----------------------------|
|----------4------------------|
|----------4------------------|
|----------2------------------|
|-----------------------------|
  She went down in an airplane

|----------------------|
|----------------------|
|----------------------|
|-4--------------------|
|-4--------------------|
|-2--------------------|
Fried getting suntanned

|-------------------------------------------|
|-------------------------------------------|
|-6-----------------8------------6----------|
|-6-----------------8------------6----------|
|-4-----------------6------------4----------|
|-------------------------------------------|
    Fell in a cement mixer full of quicksand

|------------------------------------------|
|------------------------------------------|
|-4------------------------------------3---|
|-4-----------------4------------------3---|
|-2-----------------4------------------1---|
|-------------------2----------------------|
  Help me, help me, I'm no good at goodbyes!

She met a shark under water
Fell and no one caught her
I returned everything I ever bought her
Help me, help me, I'm all out of lies
And ways to say you died

*************************************************************

[INTERLUDE] (after each chorus) Played the same as the verses

|---------------------------------------------------------|
|---------------------------------------------------------|
|-4-----------------6-----------------4-----------------3-|
|-4--------6--------6--------4--------4--------6--------3-|
|-2--------6--------4--------4--------2--------6--------1-|
|----------4-----------------2-----------------4----------|

*************************************************************

[BRIDGE]
|------------------------------------|
|------------------------------------|
|-6----------------------------------|
|-6----------------------------------|
|-4----------------------------------|
|------------------------------------|
 I wanna live a thousand lives with you

|------------------------------------|
|------------------------------------|
|-4----------------------------------|
|-4----------------------------------|
|-2----------------------------------|
|------------------------------------|
I wanna be the one you're dying to

|----------------------------|
|----------------------------|
|-6-------------------4------|
|-6-------------------4------|
|-4-------------------2------|
|----------------------------|
 Love...but you don't want to

That's cool, but if my friends ask where you are I'm gonna say
That's cool, but if my friends ask where you are I'm gonna say

**************************************************************

[FINAL CHORUS] (both choruseses combined)

**************************************************************

[OUTRO] play this twice

|----------------------------------|
|----------------------------------|
|-4------------------------------6-|
|-4---------------4--------------6-|
|-2---------------4--------------4-|
|-----------------2----------------|
Tap to rate this tab
 
# A B C D E F G H I J K L M N O P Q R S T U V W X Y Z