Song name
# A B C D E F G H I J K L M N O P Q R S T U V W X Y Z

Transplants - Not Today tab

Not Today - Transplants ft. Sen Dog
Haunted Cities 2005

Standard Tuning (EABGDE)

h - hammer on
p - pull off
^ - bend
r - release bend
~ - vibrato
x - dead note
/ - slide
. - palm mute
(n) - ghost note


Intro/Chorus - Guitar 1&2
e|-------------------------------------------|
A|-------------------------------------------|
B|-----------88--------8888-10101010---------|
G|-10101010--88--1010--8888-10101010---------|
D|-10101010--66--1010--6666--8-8-8-8---------|
E|--8-8-8-8-------8-8------------------------|

Verse - Lead Guitar
e|-------------------------------------------|
A|-------------------------------------------|
B|--5-5-5-5-5-5-5-5--------------------------|
G|-------------------------------------------|
D|-------------------------------------------|
E|-------------------------------------------|

Verse - Rythme Guitar
e|--8-----------6---8----8-----------6---8------|
A|--8-----------8--10----8-----------8--10------|
B|--9-----------8--10----9-----------8--10------|
G|-10-----------8--10---10-----------8--10------|
D|-10-----------6---8---10-----------6---8------|
E|--8--------------------8----------------------|
     (let ring)           (let ring)

Solo
e|-----------------------------------------------|
A|--8-------------8-------8-------8--------------|
B|-10^(12)HOLD---10^(12)-10^(12)-10^(12)r10-10---|
G|-----------------------------------------------|
D|-----------------------------------------------|
E|-----------------------------------------------|

Solo Con't
e|----------------------------------------------|
A|----10----10----10----------------------------|
B|--/8----/8----/8---8--------------------------|
G|---------------------10-8---------------------|
D|--------------------------10-9-8--------------|
E|---------------------------------11-8---------|

Comments? 
crackcityrockers@gmail.com
Tap to rate this tab
 
# A B C D E F G H I J K L M N O P Q R S T U V W X Y Z